Oops, an error
Loading. Please wait.

Belief Tab

version 3
version 3

Whole song

Interactive

Video

17,084 views 6 this week
no commentswrite comment
1 2 3 4 5
worth learning
x 3
add to favorites
launch autoscroll
font size
0
reset
how to read this tab
guitar tuner
Tab Pro tools
  • play this tab
  • loop segment
  • change instrument
  • show fretboard
  • metronome
×
Best way to learn
"Belief"
Autoscroll
slow
fast
+/-
esc
set tempo
stop
Contributor
Difficulty
intermediate
b=bend
br=release bend
/=slide
p=pulloff
h=hammer on
v=vibrato
o=repeat
t=tremolo

intro
play this two times
|-------------------|-------------------|--------------|-------------------|
|o------------------|-------------------|--------------|------------------o|
|-------------------|-------------------|--------------|-------------------|
|-----15---15-14-13-|-----12---12-11-10-|----8---8-7-6-|----15----15---17--|
|o------------------|-------------------|--------------|------------------o|
|-/17----17---------|-/14----14---------|-/10--10------|-/17---17---/19----|

Verse:                    Play this two times
|-------------------|------------------|---------------|-------------------|
|o------------------|------------------|---------------|------------------o|
|-------------------|------------------|---------------|-------------------|
|----15---15-14-13--|----12---12-11-10-|----8----8-7-6-|----15---15----17--|
|o------------------|------------------|---------------|------------------o|
|-/17---17----------|-/14---14---------|-/10--10-------|-/17---17---/19----|

play this 2 times
|--------------------|----------------------|--------------------|
|o-------------------|----------------------|--------------------|
|----15--15-14-13/12-|----14----14-13-12/10-|----12----12-11-10--|
|o-------------------|----------------------|--------------------|
|-/17--17------------|-/16---16-------------|-/14---14-----------|
|--------------------|----------------------|--------------------|

|----------------|
|---------------o|
|---10---10-9-7--|
|----------------|
|-12---12-------o|
|----------------|


|------------------|------------------|---------------|------------------|
|------------------|------------------|---------------|------------------|
|------------------|------------------|---------------|------------------|
|----15---15-14-13-|----12---12-11-10-|----8----8-7-6-|----15---15----17-|
|------------------|------------------|---------------|------------------|
|-/17---17---------|-/14---14---------|-/10---10------|-/17---17---/19---|

After you play this part one time start over from the verse but don't play the line 
above go straight to the chorus shown below:

Chorus:

play this 4 times
|------------|------------|
|o-----------|-----------o|
|-7----------|-5----------|
|-7----------|-5----------|
|o5----------|-3---------o|
|------------|------------|

intro to solo:

     play this 2 times then go to the solo
|--------------------|-------------------|--------------|------------------|
|o-------------------|-------------------|--------------|-----------------o|
|--------------------|-------------------|--------------|------------------|
|-----15----15-14-13-|----12---12--11-10-|----8---8-7-6-|----15---15----17-|
|o-------------------|-------------------|--------------|-----------------o|
|--/17---17----------|-/14---14----------|-/10--10------|-/17---17---/19---|


SOLO:

||------------------|-------------------------------------------------------|
||-13/15------------|--------13p10------------------------------------------|
||--------12b-12bbr-|-12b-12b------12-10-12p10------------------------------|
||------------------|--------------------------12-10-10---------------------|
||------------------|-----------------------------------/12-/12-/12-/12-/12-|
||------------------|-------------------------------------------------------|

----------|---------------------------------------|
----------|---------------------------------------|
----------|-5h7-5h7-7vvvv-------------------------|
-----15---|----------------7p5------3h5-3h5-5vvv--|
--/17--17-|-------------------7-5/3---------------|
----------|---------------------------------------|

|-------------------------------------------|---------13------------------||
|-12--12--12--------------------------------|-12-13-15---15-12--14b-14bbr-||
|-12b-12b-12b-----------10-12bbrp10---10-10-|-----------------------------||
|------------------10h12------------12------|-----------------------------||
|-------------10h12-------------------------|-----------------------------||
|-------------------------------------------|-----------------------------||

for the rest of this song just play the chorus chords
also make sure that the neck pickup is all the way up
comments
We did not receive enough feedback on this tab! Please rate:
print report bad tab
1 2 3 4 5
I want to post or [tab]
guest
You may want to rate the tab now too:
select rating
Please do not post tabs as comments. Select "correction" instead!