Oops, an error
Loading. Please wait.

Belief Tab

version 4
version 4

Whole song

Interactive

Video

88,562 views 213 this week
7 commentsread comments
1 2 3 4 5
accurate
x 27
add to favorites
launch autoscroll
font size
0
reset
how to read this tab
guitar tuner
Autoscroll
slow
fast
+/-
esc
set tempo
stop
Help us to improve Ultimate-Guitar.com Take our survey!
×
Author
Difficulty
novice
Belief
transcribed by Catherine Gagné

Standard tuning

[Intro / Verse]

e|--------------------------------------------|
B|b--------------------------------------------|
G|g-----------10--10----9---------7----7----5—-|
D|d--------------------------------------------|
A|a--------/12---12--\10-------/8----8---\7----|
E|e--10-10-----------------3-3-----------------|

e|----------------------------------------------|
B|----------------------------------------------|
G|---------3---3---2-----------10---10-----12---|
D|----------------------------------------------|
A|-3-3--/5---5--\3---------/12---12---12/13-----|
E|-------------------10-10----------------------|

"Oh everyone believes.."

e|--------------------------------------------------------------------------|
B|------/11--11--10---------10--10--8---------8---8---6--------6---6--5-\-3-|
G|--------------------------------------------------------------------------|
D|----/12--12--\10-------/10--10-\8--------/8---8---\7-------/7---7---------|
A|-------------------3-3---------------------------------1-1----------------|
E|-3-3----------------------------------1-1---------------------------------|


[Chorus]

e|------------------------------|
B|------------------------------|
G|---10-------10-------9----7---|
D|----x--------x-------x---10---|
A|---12---/14-14--/10-10----x---|
E|---10---------------------8---|


[Solo]

e|--------------------------------------|
B|---13/15~~~~--------------------------|
G|-------------12/14-14\12~~~~-p10h12~~-|
D|--------------------------------------|
A|--------------------------------------|
E|--------------------------------------|

e|---------------------------------------------|
B|-----12-15-12--------------------------------|
G|12b14---------12b14-12-10--------------------|
D|-------------------------12------------------|
A|----------------------------12\10p8-10~~~~---|
E|---------------------------------------------|


e|---------------------------------------------|
B|---------------------------------------------|
G|----------------------------10~~-------------|
D|----------------------10-12------12~~p10-----|
A|---12/10-8-10-8-10/12------------------------|
E|---------------------------------------------|

e|-----------------------------------------------------|
B|-----------------------------------------------------|
G|-5/7-5/7-5/7~~7p5------------------------------------|
D|------------------7\5p3------3/5-3/5-3/5~~/6\5~~p3~~-|
A|------------------------5~~--------------------------|
E|-----------------------------------------------------|

e|------------------------|
B|---12/13-12/13-12/13--\-|
G|---13/14-13/14-13/14--\-|
D|------------------------|
A|------------------------|
E|------------------------|

e|----------------------------------------------10-13b15-10----10~~~~-\-|
B|----------------------------------------10-13-------------13----------|
G|------------10-12b13-12-10-10h12p10-12--------------------------------|
D|------10-12-----------------------------------------------------------|
A|--/12-----------------------------------------------------------------|
E|----------------------------------------------------------------------|
Suggest correction
comments
print report bad tab
7 comments total. Showing first comments.
0 reply
YDudeG 49 wrote on July 7 2009, 05:41 pm

nice tab

0 reply
hardrock3r987 10 wrote on July 9 2009, 07:32 am

nice but i chorus sounds kinda wack though

0 reply
drakehawk 10 wrote on July 29 2009, 08:12 am

no one has the chorus part right yet that goes along with the outro
outro

e 5 5
b 6 6 8 8 8
g 7 7 9
9 9
d 7 8 8 8 8
a 5 5 10 10 10
E 8 same chords 8-10 on low e

if you can't hear the
rythm then there is no use trying to read the tab

guest
You may want to rate the tab now too:
select rating
Please do not post tabs as comments. Select "correction" instead!