Oops, an error
Loading. Please wait.

Belief Tab

version 5
version 5

Whole song

Interactive

Video

31,607 views 9 this week
no commentswrite comment
1 2 3 4 5
accurate
x 5
add to favorites
launch autoscroll
font size
0
reset
how to read this tab
guitar tuner
Tab Pro tools
  • play this tab
  • loop segment
  • change instrument
  • show fretboard
  • metronome
×
Best way to learn
"Belief"
Autoscroll
slow
fast
+/-
esc
set tempo
stop
Contributor
|-------------------------------------------------------------------------------------------|
|-------------------------------------------------------------------------------------------|
|                                           BELIEF                                          |
|-------------------------------------------------------------------------------------------|
|-------------------------------------------------------------------------------------------|
|                                  JOHN MAYER - CONTINUUM                                   |
|-------------------------------------------------------------------------------------------|
|-------------------------------------------------------------------------------------------|
tab by ismael (ismael-neiva@hotmail.com)


Some comments first:
- This is not tabbed just like John plays it.
  I tabbed it just by listening to the studio version an realised later that  
  John plays it otherwise. I'm just too lazy to change it. Sorry.
  Yet it sounds pretty much the same. If it bothers you much try watching the 
  video andplay the notes on the other strings.

- I'm not sure about the 'Outro' chords. Nor about the rhythm.
  I don't really think John plays chords, but single notes.
  It's hard to make out with all the distortion on top of it. Or mabye i just 
  got lazy again. But it doesn't sound (too) bad.

- Also, i can't make out the solo. I'm still trying.
  Will update ASAP.

- Finally the song isn't over after the 2nd 'Outro' Therefore the empty bar.
  But i can't get what comes afterwards clearly (When John sings "What puts a 
  hundred thousand children in the sand..."

- Comments? Corrections? Suggestions? The right tab for the solo (STUDIO 
  version)?? please send it to ismael-neiva@hotmail.com.

      Verse (2nd repeat)
E||----------------------------|---------------------------|---------------------------|
B||--------------6----6\-5--5--|-------------3----3\-1--1--|---------------------------|
G||*---------------------------|---------------------------|-------------3----3\-2--2--|
D||*-----------7----7----------|-----------3----3----------|---------------------------|
A||---5--5---------------------|---------------------------|--3--3-----5----5----------|
E||----------------------------|--3--3---------------------|---------------------------|

                                    Chorus
|------------------------------||--------------6----6\-5--5--|-------------5----5\-3--3--|
|---------------6----6\-8--8---||----------------------------|---------------------------|
|-----------------------------*||*-----------7----7----------|-----------5----5----------|
|-------------7----7----------*||*---------------------------|---------------------------|
|------------------------------||---5--5---------------------|--3--3---------------------|
|--10--10----------------------||----------------------------|---------------------------|

                              (1st ending for Chorus)       (2nd ending for Chorus)
|-------------3----3\-1--1--|----------------------------||---------------------------|
|---------------------------|-------------6----6\-5--3---||-------------6----6\-8--6--|
|-----------3----3----------|---------------------------*||---------------------------|
|---------------------------|-----------7----7----------*||-----------7----7----------|
|---------------------------|----------------------------||---------------------------|
|--1--1---------------------|--3--3----------------------||--3--3---------------------|

    Verse (1st repeat)
|----------------------------|---------------------------|---------------------------|
|--------------6----6\-5--5--|-------------3----3\-1--1--|---------------------------|
|*---------------------------|---------------------------|-------------3----3\-2--2--|
|*-----------7----7----------|-----------3----3----------|---------------------------|
|---5--5---------------------|---------------------------|--3--3-----5----5----------|
|----------------------------|--3--3---------------------|---------------------------|

                                   Chorus
|------------------------------||--------------6----6\-5--5--|-------------5----5\-3--3--|
|---------------6----6\-8--8---||----------------------------|---------------------------|
|-----------------------------*||*-----------7----7----------|-----------5----5----------|
|-------------7----7----------*||*---------------------------|---------------------------|
|------------------------------||---5--5---------------------|--3--3---------------------|
|--10--10----------------------||----------------------------|---------------------------|

                              (1st ending)                  (2nd ending)
|-------------3----3\-1--1--|----------------------------||---------------------------|
|---------------------------|-------------6----6\-5--3---||-------------6----6\-8--6--|
|-----------3----3----------|---------------------------*||---------------------------|
|---------------------------|-----------7----7----------*||-----------7----7----------|
|---------------------------|----------------------------||---------------------------|
|--1--1---------------------|--3--3----------------------||--3--3---------------------|

     Outro
|----x---x------x--x---x--x---x---x--|---x---x------x--x---x--x---x---x---||
|---10--10-----10-10--10-10--10--10--|---8---8------8--8---8--8---8---8---||
|*--10--10-----10-10--10-10--10--10--|---9---9------9--9---9--9---9---9--*||
|*--12--12-----12-12--12-12--12--12--|--10--10-----10-10--10-10--10--10--*||
|---12--12-----12-12--12-12--12--12--|---x---x------x--x---x--x---x---x---||
|---10--10-----10-10--10-10--10--10--|---8---8------8--8---8--8---8---8---||

   Bridge (this part in background)
|----------------------------|---------------------------|---------------------------|
|--------------6----6\-5--5--|-------------3----3\-1--1--|---------------------------|
|*---------------------------|---------------------------|-------------3----3\-2--2--|
|*-----------7----7----------|-----------3----3----------|---------------------------|
|---5--5---------------------|---------------------------|--3--3-----5----5----------|
|----------------------------|--3--3---------------------|---------------------------|

                                   Solo (this part in background) 
|------------------------------||--------------6----6\-5--5--|-------------5----5\-3--3--|
|---------------6----6\-8--8---||----------------------------|---------------------------|
|-----------------------------*||*-----------7----7----------|-----------5----5----------|
|-------------7----7----------*||*---------------------------|---------------------------|
|------------------------------||---5--5---------------------|--3--3---------------------|
|--10--10----------------------||----------------------------|---------------------------|

   
|-------------3----3\-1--1--|---------------------------|----------------------------||
|---------------------------|-------------6----6\-5--3--|-------------6----6\-8--6---||
|-----------3----3----------|---------------------------|---------------------------*||
|---------------------------|-----------7----7----------|-----------7----7----------*||
|---------------------------|---------------------------|----------------------------||
|--1--1---------------------|--3--3---------------------|--3--3----------------------||

    Outro        
|----x---x------x--x---x--x---x---x--|---x---x------x--x---x--x---x---x---||-----||
|---10--10-----10-10--10-10--10--10--|---8---8------8--8---8--8---8---8---||-----||
|*--10--10-----10-10--10-10--10--10--|---9---9------9--9---9--9---9---9--*||-----||
|*--12--12-----12-12--12-12--12--12--|--10--10-----10-10--10-10--10--10--*||-----||
|---12--12-----12-12--12-12--12--12--|---x---x------x--x---x--x---x---x---||-----||
|---10--10-----10-10--10-10--10--10--|---8---8------8--8---8--8---8---8---||-----||


Tablature Legend
----------------
x - dead note
h - hammer on
p - pull off
b - bend
\ - shift slide
T - tapping
S - slap
comments
print report bad tab
I want to post or [tab]
guest
You may want to rate the tab now too:
select rating
Please do not post tabs as comments. Select "correction" instead!