Oops, an error
Loading. Please wait.
We have an official Bold As Love tab made by UG professional guitarists. Check out the tab »
×
37,215 views 27 this week
no commentswrite comment
1 2 3 4 5
x 9
add to favorites
launch autoscroll
font size
0
reset
how to read this tab
guitar tuner
backing track
0:00
0:00
Autoscroll
slow
fast
+/-
esc
set tempo
stop
Tuning
D# G# C# F# A# D#
There was a corrupt guitar pro file for the john mayer bold as love version so i decided 
convert all the parts to ASCII im not sure if its accurate lol

                                 Bold As Love  John Mayer Solo

                  |----3---|
  H        Q      E   E    E     H.              E   E

D#|------------------------------|-------------------------|
A#|------------------------------|-------------------------|
F#|-----------4br----4--(4)p--2--|--4br~------------4p--2--|
C#|------------------------------|-------------------------|
G#|------------------------------|-------------------------|
D#|------------------------------|-------------------------|


     H         Q      E   E     E   Q.     E  E  E  E     H         E   E   Q
D#|--------------------------|-------------------------|-------------------------|
A#|--------------------------|-------------------------|-------------------------|
F#|--4~--------4br----4p--2--|--2h--4------2-----2--2--|------------2h--4p--2----|
C#|--------------------------|----------------4--------|--5~---------------------|
G#|--------------------------|-------------------------|-------------------------|
D#|--------------------------|-------------------------|-------------------------|


      E  E  E  E  H             E   E  E  E  E   E   S   S E
D#|---------5----------------|--------------------------------|
A#|------5-----5--8b~--------|--7b--7--5--5-------------------|
F#|--/6----------------------|---------------4b--2h--2-4g2-4--|
C#|--------------------------|--------------------------------|
G#|--------------------------|--------------------------------|
D#|--------------------------|--------------------------------|


   |---3---|  |----3---| |---3--|  |---3---|
   E   E   E  E  E  S  S E   E  E  E    E  E     E  E   E   E   Q      E    E
D#|-------------2----------------------------5--|-----8---------------------------|
A#|----------2-----5--2p-0----------------------|------------10--10~----10~--10~--|
F#|--2h--4b----------------2h--4-----2--4g6-----|--9-----11-----------------------|
C#|-------------------------------4-------------|---------------------------------|
G#|---------------------------------------------|---------------------------------|
D#|---------------------------------------------|---------------------------------|


                     |----3---|    |----3---|
   E    E   E    E   E    E   E    E   E    E
D#|-------10-------10-------10-------10-------10--|
A#|--12b------12b------12b------12b------12b------|
F#|-----------------------------------------------|
C#|-----------------------------------------------|
G#|-----------------------------------------------|
D#|-----------------------------------------------|


   |----3---|    |----3---|   |----3---|    |----3---|
   E    E   E    E   E    E   E    E   E    E   E    E
D#|-------10-------10-------10-------10-------10-------10--|
A#|--13b------13b------13b------13b------13b------13b------|
F#|--------------------------------------------------------|
C#|--------------------------------------------------------|
G#|--------------------------------------------------------|
D#|--------------------------------------------------------|


   |----3---|    |----3---|   |----3---|    |-3-|
   E    E   E    E   E    E   E    E   E    E   Q
D#|-------10-------10-------10-------10-------10--12b----|
A#|--13b------13b------13b------13b------13b------12b----|
F#|------------------------------------------------------|
C#|------------------------------------------------------|
G#|------------------------------------------------------|
D#|------------------------------------------------------|


     E   E   S  S   S  S  Q      Q
D#|-----12--10-------------------------|
A#|------------13p-10----10~----10~----|
F#|-------------------12---------------|
C#|------------------------------------|
G#|------------------------------------|
D#|------------------------------------|


      E    E  S  S  S   S  E    E  S  S  S   S     E    E  S  S  S   S  H
D#|--12b--12----10--------12b--12----10--------|--12b--12----10--------12b--------|
A#|----------------13p-10-12b-----------13p-10-|----------------13p-10-12b--------|
F#|--------------------------------------------|----------------------------------|
C#|--------------------------------------------|----------------------------------|
G#|--------------------------------------------|----------------------------------|
D#|--------------------------------------------|----------------------------------|


     Q.      E   S  S  S  S  Q         Q      E      E    Q      Q
D#|---------12--10-----------------|-----------------------------------|
A#|----------------13-10----10~----|--10~----12br--(12)--10~----10/----|
F#|----------------------12--------|-----------------------------------|
C#|--------------------------------|-----------------------------------|
G#|--------------------------------|-----------------------------------|
D#|--------------------------------|-----------------------------------|


   |------3------|      |------3------|
   Q      Q      Q      Q      Q      Q
D#|--17~----17~----17~----17~----17~----17~----|
A#|--------------------------------------------|
F#|--------------------------------------------|
C#|--------------------------------------------|
G#|--------------------------------------------|
D#|--------------------------------------------|


   |------3------|      |------3-----|
   Q      Q      Q      Q      Q     Q        E    E   Q      E    E   Q
D#|--17~----17~----17~-----------17~---------|--19b--19--17~----20b--20--17----|
A#|-----------------------17~----------------|---------------------------------|
F#|------------------------------------------|---------------------------------|
C#|------------------------------------------|---------------------------------|
G#|------------------------------------------|---------------------------------|
D#|------------------------------------------|---------------------------------|


      E    Q.       E    Q     E         E   E  S  S   S  S     E   Q     E
D#|--20b--20b------17~--17~-------|-----17--17--------------------------------|
A#|----------------17~--17~-------|--17g19--17-----------------17--17---------|
F#|-------------------------------|---------------19p-17-19-16g18--16---------|
C#|-------------------------------|--------------------------------------19\--|
G#|-------------------------------|-------------------------------------------|
D#|-------------------------------|-------------------------------------------|


                                                       |---3--|  |--3--|
    E  E  S S S S   E    E    E   E     E   E    E  E  E  E   E  E  E  E
D#|----5--5-----------------------------|---------------------------2----------|
A#|--5g7--5------------5----5-----------|------------------------2-----5-------|
F#|------------7-5---4g6--4g6--6g4p--2--|--4b--4--4g2-----2--4b-----------4br--|
C#|----------------7--------------------|--------------4-----------------------|
G#|-------------------------------------|--------------------------------------|
D#|-------------------------------------|--------------------------------------|


     E  E   Q     E  E  E  E     H          E    Q.         W
D#|---------------------5-----|-------------5S--17\------|-------------------|
A#|------------------5-----5--|--8b~--------5S--17\------|-------------------|
F#|--2--4p--2----/6-----------|--------------------------|-------------------|
C#|---------------------------|--------------------------|-------------------|
G#|---------------------------|--------------------------|-------------------|
D#|---------------------------|--------------------------|-------------------|


Duration Legend
---------------
W - whole
H - half
Q - quarter
E - 8th
S - 16th
T - 32nd
X - 64th
. - note dotted
|-n-|  - n-tuplets

************************************

| p    Pull-off
| br   Bend release
| h    Hammer-on
| ~    Vibrato
| b    Bend
| g    Grace note
| /    Slide up
| (n)  Ghost note
| \    Slide down   

************************************
Suggest correction
comments
print report bad tab
guest
You may want to rate the tab now too:
select rating
Wanna post a correction for this tab? Suggest correction