Oops, an error
Loading. Please wait.

Bold As Love Tab

version 3
version 3

Whole song

Interactive

146,495 views 276 this week
5 commentsread comments
1 2 3 4 5
accurate
x 22
add to favorites
launch autoscroll
font size
0
reset
how to read this tab
guitar tuner
Autoscroll
slow
fast
+/-
esc
set tempo
stop
Help us to improve Ultimate-Guitar.com Take our survey!
×
Author
Difficulty
Tuning
intermediate
D# G# C# F# A# D#
[Verse]

      A            E     F#m            D             A         E            F#m    D
D#|--5/---x-------0--0----|--2-------------------------|-----5---5--0---------|----------------|
A#|--5/---x-------0--0----|--2-------------------------|-----5h7-5--0---------|----------------|
F#|--6/---x-------1--1h2p1|--2--2h4p2------------7---7-|------------1--1h2p1--|----2----7------|
C#|--7/---x-------2--2----|--4--------2h4-----/7-7h9-7-|------------2---------|----2h4--7---7--|
G#|--7/---x-------2--2----|--4-------------/5----------|------------2---------|---------5-4-4--|
D#|-------x--14\--0--0----|--2-------------------------|--/5--------0---------|-/2-------------|

Anger he criess towering
in shiny metallic purple armor
Queen Jealousy, envy waits behind him
Her fiery green gown sneers at the grassy ground


[Pre-Chorus]

      D       A           Bm       G                 D       A        Bm      G
D#|-------------------|--------------------------|----------------|------------5-----4--|
A#|-------------------|--7-----------------------|----------5---5-|--7-----------3---5--|
F#|------------6h7-6--|--7---7----2h4p2--2-2-----|--7-------6h7-6-|--7---7---------4-6--|
C#|--7---7-----7---7--|--7h9-7---------4-2-4-2---|--7----/7-7---7-|--7h9-7---5----------|
G#|--7h9-7------------|--------------------------|--5-------------|---------------------|
D#|---------/5--------|--------------------------|----------------|---------------------|

Blue are the life-going waters taken for granted
They quietly understand
The once happy turquoise armies lay opposite ready
But wonder why the fight is on


[Chorus]

      A        E       F#m     G                     A       E           D/F#
D#|--x--x-----------|-----2---3--3--3--5--5--5--|---x--x--------12--|---------x--x--x------|
A#|--5--5-----9-9---|-----2---3--3--3--3--3--3--|--/5--5--------12--|--------10-10-10\-----|
F#|--6--6-----9-9---|-----2---4--4--4--4--4--4--|--/6--6--------12--|---x-----7--7--7\-----|
C#|--7--7-----9-9---|--4--4---5--5--5--5--5--5--|--/7--7----14--14--|---7-----7--7--7\-----|
G#|--7--7-----7-7---|--4--4---------------------|--/7--0----14--14--|---9-----9--9--9\-----|
D#|-----------------|--2--2---------------------|-----------12--12--|----------------------|

But they're all bold as love
Yeah, they're all bold as love

      A        E        F#m         D/F#
D#|---x--x----------|--2-------|-----------------------|
A#|--/5--5----9-9---|--2-------|------x-10-------------|
F#|--/6--6----9-9---|--2-------|------x--7-------------|
C#|--/7--7----9-9---|--4-------|------x--7-------------|
G#|--/7--7----7-7---|--4-------|--/9--x--9-------------|
D#|-----------------|--2-------|-----------------------|

They're all bold as love
Just ask the axis


[Post-Chorus]

      A          Bm                        D                 G
D#|-----------------------------------|---------------------3-3-5p3-3-5p3-3-5p3-3--|
A#|-----5---5---7h10p7--7-7-----------|---------------------3-3-3---3-3---3-3---3--|
F#|-----7p6-6-----------9-7-----------|-------------7-7-----4-4-4---4-4---4-4---4--|
C#|-----7---7-----------9-9--9-7------|-------------7-7-----5-5-5---5-5---5-5---5--|
G#|-----0---0--------------------9-7--|----------7--9-9-9\-------------------------|
D#|--/5-------------------------------|--/5--7/9-----------------------------------|


[Verse]

      A          E         F#m       D           A       E         F#m         D
D#|--------------------|-----------------------|---------------|--------------------|
A#|--5---5-5-----------|--------------x-x-x-x--|--5-5-5--------|--------------------|
F#|--6---7-6-----------|-----2h4-2----7-5-7-5--|--6-6-6--------|-----2h4------7-----|
C#|--7---7-7---/14-14--|-----2---2h4--7-5-7-5--|--7-7-7---14\--|---------4----7--7--|
G#|------------/14-14--|--------------5-5-5-5--|----------14\--|--------------5--4--|
D#|------------/12-12--|--/2-------------------|----------12\--|--/2----------------|

My red is so confident that he flashes
Trophies of war and ribbons of euphoria
Orange is young, full of daring
But very unsteady for the first go around


[Pre-Chorus]

            D      A           Bm        G             D     A         Bm        G
D#|------------------------|-----------------------|-----------------|-------------------------|
A#|-----------------5------|--------------2--------|----------5------|------------3-3-3/4-4-4--|
F#|-----------------6h7p6--|-----7h9-7----2h4p2----|----------6h7p6--|--7h9p7-7---4-4-4/5-5-5--|
C#|--7---7-12\------7------|-----7---7----------5--|--/12-----7------|--7-----7---5-5-5/6-6-6--|
G#|--7h9-7-12\-------------|-----------------------|--/12------------|-------------------------|
D#|--------10\---/5--------|--/7-------/2----------|--/10--/7--------|-------------------------|

My yellow in this case is not so mellow
In fact I'm trying to say it's frightened like me
And all these emotions of mine keep holding me from
Giving my life to a rainbow like you


[Chorus]

      A        E       F#m    G                      A       E          D/F#
D#|--x--x----------|-----2---3-5p3-3-5p3-3-5p3--|---x--x-----------|-----------x--x--x------|
A#|--5--5-------9--|-----2---3-3---3-3---3-3----|--/5--5-------9---|----------10-10-10\-----|
F#|--6--6-------9--|-----2---4-4---4-4---4-4----|--/6--6-------9---|---x-x-----7--7--7\-----|
C#|--7--7-----9-9--|--4--4---5-5---5-5---5-5----|--/7--7----9--9---|---7-7-----7--7--7\-----|
G#|--7--7-----7-7--|--4--4----------------------|---7--7----7--7/--|--\9-9-----9--9--9\-----|
D#|----------------|--2--2----------------------|------------------|------------------------|

I'm bold, bold as love
Yeah I'm bold, bold as love

      A        E        F#m         D/F#
D#|---x--x----------|--2-------|--------------------|
A#|--/5--5----9-9---|--2-------|------x-10/---------|
F#|--/6--6----9-9---|--2-------|------x--7/---------|
C#|--/7--7----9-9---|--4-------|------x--7/---------|
G#|---0--0----7-7---|--4-------|--/9--x--9/---------|
D#|-----------------|--2-------|------------14\-----|

I'm bold, bold as love
Just ask the axis

************************************

| x  Dead note
| h  Hammer-on
| p  Pull-off
| /  Slide up
| \  Slide down 

************************************
Suggest correction
comments
print report bad tab
5 comments total. Showing first comments.
0 reply
YuriR 57 wrote on August 30 2009, 05:10 am

The solo comes later!

0 reply
Quintijn 518 wrote on July 8 2010, 09:28 pm

The tab is somewhat fine, but I think the most people are looking for the solo and that's why this is rating so low.

peace.

0 reply
neverchanging 47 wrote on July 19 2011, 11:49 am

Great tab man :) thx!

guest
You may want to rate the tab now too:
select rating
Please do not post tabs as comments. Select "correction" instead!