Oops, an error
Loading. Please wait.

Born And Raised Reprise Tab

7,558 views 33 this week
no commentswrite comment
1 2 3 4 5
accurate
x 7
add to favorites
launch autoscroll
font size
0
reset
how to read this tab
guitar tuner
Tab Pro tools
  • play this tab
  • loop segment
  • change instrument
  • show fretboard
  • metronome
×
Best way to learn
"Born And Raised Reprise"
Autoscroll
slow
fast
+/-
esc
set tempo
stop
Contributor
Difficulty
novice
John Mayer - Born & Raised (reprise)

There are a few tabs on here, but none of them actually specify that they're the 
"reprise", nor are they totally correct.

This is 100% the correct way to play the song


Intro:

e|--3---3---     ---3----3-------3-------          ---3-----|
B|--0---0---     ---0----0h1p0---1p0-----          --0------|
G|---------- X1  ------------------------ X3       ---------|
D|----------     ------------------------          ---------|
A|----------     ------------------------          ---------|
E|----2---3-     -----3---------------3--          ---------|


Verse: (Lyrics start slightly before the guitar. Start on “AND” of “Born and Raised...”
       (The -0--2- part is in sync with “locks of”)
       (Strumming starts on “brown”

e|--3---3------3----3-------3----------3------------------------|
B|--0---0------0----0h1p0---1p0--------0------------------------|
G|--------------------------------------------------------------|
D|--------------------------------------------------------------|
A|---------------------------------------------0---2------------|
E|----2---3------3---------------3--------3---------------------|
 Born and raised...                                                        Locks of

C          D             G
brown, streaks of grey

         C                    D           Em
I was brought up in brighter days It’s good to

C                 D             G
say Now I’m born and raised

*Play intro once between each verse
*Each verse has the exact same structure
*Chord structure of verse is played during the harmonica part

Born and raised
In half the time I'll be twice my age
Better learn how to turn the page
'Cause time is strange
When you're born and raised

Born and raised
Locks of brown and streaks of gray
I was brought up in brighter days
It’s nice to say

C            D             G
Now I’m born and raised
Now I’m born and raised
Now I’m born and raised
comments
print report bad tab
I want to post or [tab]
guest
You may want to rate the tab now too:
select rating
Please do not post tabs as comments. Select "correction" instead!