Oops, an error
Loading. Please wait.

Born And Raised Tab

67,994 views 69 this week
8 commentsread comments
1 2 3 4 5
x 32
add to favorites
launch autoscroll
font size
0
reset
how to read this tab
guitar tuner
×
Best way to learn
"Born And Raised"
Autoscroll
slow
fast
+/-
esc
set tempo
stop
Author
Difficulty
  follow
intermediate
[Intro]
     G       Bm7        F        C
e|-----------2---------------------------------|
B|---3-------3/5/3-----1--------1--------------|
G|---4/5/4---x---------2/3/2----0--------------|
D|---5-------4---------3--------2/0/2----------|
A|---x-------2---------x--------3--------------|
E|---3-----------------1-----------------------|

[Verse 1]
Now and then
I pace my place
I can’t retrace how I got here
I cheat the light
to check my face
it’s slightly harder than last year

[Verse 2]
I still have dreams
they're not the same
they don’t fly as high as they used to
I saw my friend
he’s in my head
and he said, “you don’t remember me do you?”

[Verse 3]
I still got time
I still got faith
I call on both of my brothers
I got a Mom
I got a Dad
but they do not have each other

[Chorus]
The first time he plays:
     Em       G        C        
e|---0-----------------3---------------------|
B|---0-------3---------1---------------------|
G|---0-------4---------0---------------------|
D|---2-------5---------2---------------------|
A|---2-------x---------3---------------------|
E|---0-------3-------------------------------|

The next time:
     Em7     G         C        
e|---0-------3---------3---------------------|
B|---3-------3---------1---------------------|
G|---0-------0---------0---------------------|
D|---2-------0---------2---------------------|
A|---2-------x---------3---------------------|
E|---0-------3-------------------------------|

and all at once
it gets hard to take
it gets hard to fake what I won’t be
cause one of these days
I’ll be born and raised
and it’s such a waste to grow up lonely

[Bridge]
While he plays the harmonica:
     G        C       Csus2     Am7(you can also play Am)    
e|---3--------------------------------------|
B|---0/1/0----1---------1--------1----------|
G|---0--------0---------0--------0----------| (x2) (C Csus2 Am7)
D|---0--------2---------0--------2----------|
A|---x--------3---------2-------------------|
E|---3--------------------------------------|

         C       Csus2     Am7       D/F#
e|-----------------------------------2----|
B|-------1---------1--------1--------3----|
G|-------0---------0--------0--------3----| 
D|-------2---------0--------2--------0----|
A|-------3---------2-----------------x----|
E|-----------------------------------2----|



************************************

| /  Slide up
| x  Dead note

************************************
Suggest correction
comments
print report bad tab
8 comments total. Showing first comments.
0 reply
edu256 82 May 16, 2011 07:02 PM

wow theres already a tab for this :)
THANKS!!!

+2 reply
L2daOGAN182 139 Jun 03, 2011 08:31 AM

beat me to the tab. lol. Only suggestions would look a lil something like this added in the strumming. good work

e-----------2---------------------------------|
b---3-------3-5-3-----1-3-1----1--------------|
g---4-5-4---x---------2--------0--------------|
d---5-------4---------3--------2-0-2----------|
a---x-------2---------x--------3--------------|
e---3-----------------1-----------------------|

0 reply
swilless33 10 May 24, 2012 12:48 PM

nice work man! def gonna play this when I get home. one correction on the lyrics:

Verse 2:
Still have dreams
they're not the same
they don’t fly as high as they used to

guest
You may want to rate the tab now too:
select rating
Wanna post a correction for this tab? Suggest correction