Oops, an error
Loading. Please wait.

Break In The Clouds Tab

4,586 views 3 this week
no commentswrite comment
1 2 3 4 5
excellent!
x 6
add to favorites
launch autoscroll
font size
0
reset
how to read this tab
guitar tuner
Tab Pro tools
  • play this tab
  • loop segment
  • change instrument
  • show fretboard
  • metronome
×
Best way to learn
"Break In The Clouds"
Autoscroll
slow
fast
+/-
esc
set tempo
stop
Contributor
Difficulty
Capo
intermediate
1st fret
Tabbed by Rocio

Listen to the song to get the rhythm http://www.youtube.com/watch?v=b88VSVuVbIw&feature=related  
     
This are the chords for the whole song.
e-------------------------------------------------|
b-------------------------------------------------|
g-----------------------10------------------------|
d------8-------10--------8------------------------|
a------6--------8--------6------------------------|
e------4--------6---------------------------------|

Easiest way: (Capo 1st fret)
e-------------------------------------------------|
b---------------5---------------------------------|
g-----4---------2-------2-------------------------|
d-----2---------0-------0-------------------------|
a-----0-----------------x-------------------------|
e-----------------------3-------------------------|


If you want, try this one too:

      G#m       A#m     D#m
e-------------------------------------------------|
b-------------------------------------------------|
g------4--------6--------8------------------------|
d------6--------8--------8------------------------|
a------6--------8--------6------------------------|
e------4--------6---------------------------------|


Verse:
I met a man I didn't know that asked me how are you doing
Shoulda just said fine cause it's all he wanted to hear
But for reasons unknown in a sorrowful tone I said
Man it's been a hell of a year

Chorus:
And I don't really know where I'm going
And I might just be hangin around
If life shades of gray then I guess you could say
That I've been waiting for a break in the clouds

Verse:
I went to go see some gypsy to tell me my future
But she asked for my photograph instead
As I walked through the cold with my fortune untold I said
Good luck trying to reach me when I'm dead

Chorus:
Cause I don't really know where I'm going
And I might just be hangin around
If life shades of gray then I guess you could say
That I've been waiting on a break in the clouds
That I've been waiting for a break in the clouds

Verse:
I saw the love I used to know swallow me whole
On a day I was out of clean clothes
She sized me up and she said honey how is your head
I said you cant call me honey but honey heaven only knows

Chorus:
And I don't really know where I'm going
And I might just be hangin around
If life shades of gray then I guess you could say
That I've been waiting for a break in the clouds

Outro
Bet your gonna be findin a break in the clouds
No no I don't no I don't know where I'm going
And I might might might might just be hangin around
And if life shades of gray then I guess you could say
That I've been waiting for a break in the clouds
comments
print report bad tab
I want to post or [tab]
guest
You may want to rate the tab now too:
select rating
Please do not post tabs as comments. Select "correction" instead!