Oops, an error
Loading. Please wait.

California Dreamin Tab

version 1
version 1

Whole song

19,634 views 21 this week
3 commentsread comments
1 2 3 4 5
accurate
x 5
add to favorites
launch autoscroll
font size
0
reset
how to read this tab
guitar tuner
Autoscroll
slow
fast
+/-
esc
set tempo
stop
Help us to improve Ultimate-Guitar.com Take our survey!
×
Author
-------------------------------------------------------------------------------
                      CALIFORNIA DREAMIN' - John Mayer Trio
-------------------------------------------------------------------------------
Tabbed by: Nimo

Tuning: standard



Intro

e|-------------------|   --3--|
B|-------------------|   --3--|
G|----------6--------|   --4--|
D|----5-7------8--7--|   --3--|
A|--5-----5---5--5---|   --5--|
E|-------------------|3x --3--|



Verse (just the chords, John plays around with them)

e|------------(3)--------|
B|--8---------(3)---3----|
G|--8-----7----5---5/4---|
D|--10----5----3----3----|
A|--------8----6---------|
E|--8-----6----4----3----|



===============================================================================
Suggest correction
comments
print report bad tab
3 comments total.
0 reply
jrutheiser 10 wrote on August 27 2009, 05:01 pm

Try this for intro:

e|----------------|
B|---------6------|
G|----5-7---8-7---|
D|--5-------------|
A|----------------|
E|----------------|

-Jonathan R.

+2 reply
Tucker100 50 wrote on August 27 2009, 11:56 pm

For the tabs intro every note should be down one string i.e.

e|-------------------| --3--|
B|----------6--------| --3--|
G|----5-7------8--7--| --4--|
D|--5-----5---5--5---| --3--|
A|-------------------| --5--|
E|-------------------

0 reply
bondja 10 wrote on August 28 2009, 09:56 pm

This intro seems to be easier and fit more. The original song is capoed on the 3rd fret so the B string is actually open. He plays it so there is no capo needed.

e|----------------|
B|------3---6-4-3-|
G|----5---5-------|
D|--5-------------|
A|----------------|
E|----------------|

guest
You may want to rate the tab now too:
select rating
Please do not post tabs as comments. Select "correction" instead!