Oops, an error
Loading. Please wait.

Cissy Strut Tab

version 3
version 3

Whole song

Interactive

1,744 views 3 this week
no commentswrite comment
1 2 3 4 5
please rate
add to favorites
launch autoscroll
font size
0
reset
how to read this tab
guitar tuner
Autoscroll
slow
fast
+/-
esc
set tempo
stop
Help us to improve Ultimate-Guitar.com Take our survey!
×
Author
Tabbed by: Theskyhigh
Tune: E A D G B E
b: Bend
s: Slide
v^:Up and Down Stroke

These are the two rifs which john mayer repeat throughout the whole song:

1|-----------------------------------|
2|-------------------------xx--66-66-|
3|-------------------------xx--77-55-| 4x
4|-8p6---------------------xx--88-77-|
5|-----9--------------------------88-|
6|------11--8----3s6h8-6h8-----------|
                            v^

1|------------------------------------|
2|------------------------------------|
3|------------------------------------|
4|----10--8-10-8-10-b8---10--8-10-8---| 4x
5|-------------------------10---------|
6|----------------------------------8-|



Enjoy!
Suggest correction
Give kudos to tab author, rate the tab!
1 2 3 4 5
comments
print report bad tab
guest
You may want to rate the tab now too:
select rating
Wanna post a correction for this tab? Suggest correction