Oops, an error
Loading. Please wait.

City Love Tab

version 1
version 1

Whole song

Interactive

93,324 views 126 this week
4 commentsread comments
1 2 3 4 5
excellent!
x 16
add to favorites
launch autoscroll
font size
0
reset
how to read this tab
guitar tuner
Autoscroll
slow
fast
+/-
esc
set tempo
stop
Help us to improve Ultimate-Guitar.com Take our survey!
×
Author
City Love 
transcribed by Alan Myers

Drop D Tuning
note:  all low E notes played with thumb except chords in part F


[Part A] 

"I never liked this apple much"

e|----------------------------------------------------------|
B|----------------------------------------------------------|
G|------4--7--4------------x--x--x-------x--x--x-------x----|
D|---7--5--7--5--7--4------4--4--x-------4--4--x-------4----|
A|---7-----------7--5------5--5--x-------5--5--x-------5----|
E|---------------------7---5--5--x---2/--5--5--x---2/--5----|


[Part B] "It always seemed to big to touch"

e|----------------------------------------------------------|
B|----------------------------------------------------------|
G|------4--7--4------------x--x--x-------x--x--x-------x----|
D|---7--5--7--5--7--4------4--4--x-------4--4--x-------4----|
A|---7-----------7--5------5--5--x-------5--5--x-------5----|
E|---------------------7---0--0--x---2/--0--0--x---2/--0----|


"I can't remember how I found" (Part A)


[Part C] 

"My way before she came around.  I tell..."

e|-------------------------------------------|
B|b------------------------------------------|
G|g------4--7--4------------x---x---x---x----|
D|d---7--5--7--5--7--4------4---5---7---5----|
A|a---7-----------7--5------5---7---9---7----|
E|d---------------------7---0---0---0---0----|


[Part D] 

"...everyone, I smile just because..."

e|----0-----x-----|
B|b----0----10----|
G|g----0----10----|  (2x)
D|d----2-----7----|
A|a----3-----8----|
E|d----3-----8----|


[Part E] 

"...can't remember life before her name"

e|------------------------------------------------|
B|b-----------------------------------------------|
G|g------------------------7--7/9\7---7--7/9\7----|
D|d----9---4----9---4------7--7/9\7---7--7/9\7----|
A|a---10---5---10---5------7--7/9\7---7--7/9\7----|
E|d---10---5---10---5---0-------------------------|


"She keeps a suit case..." (Part A)
"As if I had the extra..." (Part B)
"She steals my clothes..." (Part A)
"I know, her hairs are..." (Part C)


Part F: "...the day, she called up and came to me..."

e|----x-----x----x-----|
B|b----3----10---11----|
G|g----0-----x----x----| (2x)
D|d----3----10---10----|
A|a----1-----8----8----|
E|d----1-----8----8----|


[Part G] 

"...the clothes spun we spooned..."

e|-----3---3---x-------------------------|
B|b----3---3---3-------------------------|
G|g----3---3---0----x---x---x---x---x----|
D|d----5---2---3----7---5---7---5---7----|
A|a----x---3---1----9---7---9---7---9----|
E|d----5---x---1----0---0---0---0---0----|


[Part H: Solo]

e|------------------------------------------------------------------------------------------------|
B|b--10/12-------10----------------------------------------------------10----7--------------------|
G|g---------9/11----11\9--7---9/11-9/11------7-9--------7-9/11-9/11-------------7-6---7/9-9\7/9\7-|
D|d-------------------------9------------7/9-----9--7h9--------------7-----9--------9-7/9-9\7/9\7-
A|a-----------------------------------------------------------------------------------------------|
E|d-----------------------------------------------------------------------------------------------|

e|--------------10----10---/14-10~--------10----13-10-12----10~----------------------------|
B|b----------------------------------10-12----12----------13------13-10--\12-12--10--------|
G|g-------7--/11----11---------------------------------------------------\12-12--10--------|
D|d---7h9----------------------------------------------------------------------------12~-\-|
A|a----------------------------------------------------------------------------------------|
E|d----------------------------------------------------------------------------------------|

e|---5----5-----5--------------------------|
B|b---5h7--5-----3--5--5--5----------------|
G|g-----------7--6--4--7--6--4---6---4/6---|
D|d------------------------------7---5/7---|
A|a----------------------------------------|
E|d----------------------------------------|

* The (/14) and all the (9/11) except the first one are bended notes.. 


[Part I: Ending]

e|------------------5---------x-----|
B|b---------------5-----7--5---3----|
G|g---------4--7--6-----7--6---2----|
D|d------7--5--7---------------0----|
A|a------7---------------------0----|
E|d---0------------------------0----|


I never liked this apple much
It always seemed too big to touch
I can't remember how I found
My way before she came around 

I tell everyone
I smile just because
I've got a city love
I found it in Lydia
And I can't remember life before her name 

She keeps a toothbrush at my place
As if I had the extra space
She steals my clothes to wear to work
I know - her hairs are on my shirts

I tell everyone
I smile just because
I've got a city love
I found it in Lydia
And I can't remember life before 
The day
She called up and came to me
Covered in rain
And dinnertime shadowing
And as her clothes spun, we spooned
And I knew I was through
When I said "I love you" 

Friday evening, we've been drinking
2 AM, I swear I might propose
but we close the tab
split a cab
and call each other up when we get home
falling asleep to the sound
of sirens 

I've got a city love
I found it in Lydia 

From the battery
To the gallery
It's the kind of thing you only see
In scented, glossy magazines 

And I can't remember life before her name 


(Lyrics taken from the official site)



************************************

| x  Dead note
| g  Grace note
| h  Hammer-on
| b  Bend
| /  Slide up
| \  Slide down
| ~  Vibrato

************************************
Suggest correction
comments
print report bad tab
4 comments total. Showing first comments.
-1 reply
Rayien_Acc 10 wrote on July 3 2009, 07:04 am

Btw, don't mean to be picky but isn't it Tooth Brush at my place?... other than that 5/5..

0 reply
Rayien_Acc 10 wrote on July 3 2009, 07:04 am

lol. Nvm bout my comment. Noticed your Lyrics wasnt the same as what u wrote in your tablature. lol. My bad.

0 reply
GoodCharlotte92 122 wrote on July 12 2009, 08:15 pm

you should've wrote the solo with the bends instead of the slides imo

guest
You may want to rate the tab now too:
select rating
Please do not post tabs as comments. Select "correction" instead!