Oops, an error
Loading. Please wait.

City Love Tab

version 2
version 2

Whole song

Interactive

36,226 views 24 this week
no commentswrite comment
1 2 3 4 5
excellent!
x 4
add to favorites
launch autoscroll
font size
0
reset
how to read this tab
guitar tuner
Autoscroll
slow
fast
+/-
esc
set tempo
stop
Help us to improve Ultimate-Guitar.com Take our survey!
×
Contributor
Swish 151
-----------------------------------------------------------------
City Love - John Mayer
-----------------------------------------------------------------
Tabbed by: Swish        
Email: himmelsuchen@aol.com

Tuning: Drop-D (DADGBe)

Verse:

e|--------------------------------------------------------------------------|
B|--------------------------------------------------------------------------|
G|-------------4---7-----/-4------------------------------------------------|
D|------/-7----5---7---x-/-5---7-----4----------4---4--------4---4----------|
A|------/-7--------------------7--x--5----------5---5--------5---5----------|
D|---------------------------------------7--x---5---5----0---5---5------0---|

e|--------------------------------------------------------------------------|
B|--------------------------------------------------------------------------|
G|-------------4---7-----/-4------------------------------------------------|
D|---4--/-7----5---7---x-/-5---7-----4----------4---4--------4---4----------|
A|---5--/-7--------------------7--x--5----------5---5--------5---5----------|
D|---5-----------------------------------7--x---0---0----0---0---0------0---|

1st Chorus:

e|---0---x---0---x---x----x---x----x--------------------------------|
B|---0---x---0---x---12---6---12---6--------------------------------|
G|---0---0---0---0---12---6---12---6--------------------------------|
D|---2---7---2---7---9----4---9----4---4---7---7-/-9--7--7--7-/-9---|
A|---3---8---3---8---10---5---10---5---5---7---7-/-9--7--7--7-/-9---|
D|---3---8---3---8---10---5---10---5---0----------------------------|
     *   *   *   *   *    *   *    *                                 * notes played with thumb

2nd Verse:
Behind the verse riff above John plays something like this starting at the end of the first line

e|-----------------------------------------------------|
B|---------7-----7-----------7-----7-h-8-p-7-----------|
G|---------7-----7-----------7-----7-h-9-p-7-----------|
D|---7--9-----9-----9--7--9-----9------------9--7--9---|(X7)
A|-----------------------------------------------------|
D|-----------------------------------------------------|

Lead into the 2nd Chorus:
e|-------------------|
B|---0---0---0---7---|
G|---x---x---x---7---|
D|---4---5---7---7---|
A|---5---7---9---x---|
D|---0---0---0---0---|

2nd Chorus:

e|---0---x---0---x---x----x---x----x---
B|---0---x---0---x---12---6---12---6---
G|---0---0---0---0---12---6---12---6---
D|---2---7---2---7---9----4---9----4---
A|---3---8---3---8---10---5---10---5---
D|---3---8---3---8---10---5---10---5--- to bridge
     *   *   *   *   *    *   *    *
Bridge:

e|---x---x---x---x---x---x----3---x---x-----------------------|
B|---3---10--11--3---10--11---3---5---3-------------------0---|
G|---0---x---x---0---x---x----3---5---0-----------7-------x---|
D|---3---10--10--3---10--10---5---5---3---4---5---7---5---4---|
A|---x---x---x---x---x---x----x---3---x---5---7---9---7---5---|
D|---1---8---8---1---8---8----5---x---1---0---0---0---0---0---|
     *   *   *   *   *   *    *       *

Solo:

e|--------------------------------------------------------------------------------------------------|
B|---10-/-12----------10----------------------------------------------------------------------------|
G|--------------9/11-----11\9---p7-----9/11-\-10/11-------7---9-------------------7--9/11-\-10/11---|
D|----------------------------------9-----------------/9--------/9---------7---9--------------------|
A|--------------------------------------------------------------------------------------------------|
D|--------------------------------------------------------------------------------------------------|

e|--------------------------------------------------------------10-------|
B|------10-----7---------------------------------------------------------|
G|----------------7\6-----/9-/9-\-7-/-9-\-7-----------7--/9h11------11---|
D|---7------9----------0--/9-/9-\-7-/-9-\-7-------7h9--------------------|
A|-----------------------------------------------------------------------|
E|-----------------------------------------------------------------------|

e|---10h12b14---10--\------------10----13b14-10-12----10--------------------------------------|
B|-------------------------10h12----12-------------13----13--10------------12--10-------------|
G|--------------------------------------------------------------13\12--10--12--10h11----------|
D|------------------------------------------------------------------------------------12--\---|
A|--------------------------------------------------------------------------------------------|
D|--------------------------------------------------------------------------------------------|

e|-----------------------------------------------------------------------|
B|---10-------------10-------------10-----10----------------------10-----|
G|---9h11----9------9------9-------9------9-----------------------9------|
D|--------------12--11-----9-------12-----11p9---12---------------9h11---|
A|----------------------------12-----------------12--------12------------|
E|-----------------------------------------------------------------------|

3rd Verse:

e|-----------------------------------------------------|
B|-----------------------------------------------------|
G|-----------------------------------------------------|
D|---4--4-------4--4-------4--4-------4--2-------------|
A|---5--5-------5--5-------5--5-------5--5---5p2-------|
D|---5--5----0--5--5----0--5--5----0--5--5--------7\---|

e|------------------------------------------------------------------|
B|------------------------------------------------------------------|
G|------------------------------------------0-----------------------|
D|---4--4--5--5-----4--7-----5--5-----4--4--2--2----5--5--4--4------|
A|---5--5--7--7-----5--9-----7--7-----5--5--4--4p0--7--7--5--5------|
D|---0-----------0--------0--------0----------------------------0---|

e|-------------------------------------------------------------|
B|-------------------------------------------------------------|
G|-------------------------------------------------------------|
D|---4--4---------4--4---------4--4---------4--4---------------|
A|---5--5---------5--5---------5--5---------5--5---2--5p2------|
D|---5--5---x--0--5--5---x--0--5--5---x--0--5--5-----------4---|

               Falling asleep to the sound of sirens.
e|------------------------------------------------------|
B|------------------------------------0-----------------|
G|------------------------------------x-----------------|
D|---4--------------------------------4---------4-------|
A|---5--------------------------------5---------5-------|
D|---0--------------------------------5---------5-------|

Outro Chorus:

e|---0---x---0---x---      x----x---x----x---
B|---0---x---0---x---      12---6---12---6---
G|---0---0---0---0---      12---6---12---6---
D|---2---7---2---7---(X3)  9----4---9----4---
A|---3---8---3---8---      10---5---10---5---
D|---3---8---3---8---      10---5---10---5--- 
     *   *   *   *         *    *   *    *

e|-----------------------5--------------|
B|-------------------/5-----7---5-------|
G|-----------4---7---/6-----7---6-------|
D|---4---7---5---7------------------7---|
A|---5---7--------------------------5---|
D|---0------------------------------0---|

| / slide up
| \ slide down
| h hammer-on
| p pull-off
| ~ vibrato
| + harmonic
| x Mute note
comments
print report bad tab
I want to post or [tab]
guest
You may want to rate the tab now too:
select rating
Please do not post tabs as comments. Select "correction" instead!