Oops, an error
Loading. Please wait.

Clarity Tab

version 1
version 1

Acoustic

Whole song

Interactive

73,000 views 33 this week
7 commentsread comments
1 2 3 4 5
accurate
x 14
add to favorites
launch autoscroll
font size
0
reset
how to read this tab
guitar tuner
Autoscroll
slow
fast
+/-
esc
set tempo
stop
Help us to improve Ultimate-Guitar.com Take our survey!
×
Author
John Mayer
Clarity (acoustic)
transcribed by Mark Demano

*my first tab*

finger picked and strummed



intro/verse

E----x----x----------
B----x----x----------
G----x----6----------
D----4----4----------
A----2----5----------
E----3----x----------



chorus

E---------9---5----------------
B---------10--3----------------
G----12---9---2----------------
D----12---11--4----------------
A----10---9/--2----------------
E------------------------------


bridge

E------------------------     -------------
B------------------------     -------------
G--------14--------------     -------------
D----14--12--12-------(x3)    -----10------
A----12--13--10----------     -----8-------
E----13------11----------     -----9-------


mini interlude

E-------------------------------------
B-------------------------------------
G----x--x-x--x-x-----x--x-x--x-x------
D----x--x-x--x-x-----x--x-x--x-x------
A----x--x-x--x-x-----10/2\10/2\10-----
E----10/2\10/2\10---------------------



ending/last chord

E----5-------
B----3-------
G----2-------
D----4-------
A----2-------
E------------



Intro/Verse

   I worry, I weigh three times my body 
   I worry, I throw my fear around
   But this morning, there’s a calm I can’t explain 
   The rock here has melted, only diamonds now remain

   Ooh ooh ooh ooh

   By the time I recognize this moment
   This moment will be gone
   But I will bend the light, pretend that it somehow lingered on
   Well all I got’s 

   Ooh ooh ooh ooh

Chorus

   And I will wait to find
   If this will last forever
   And I will wait to find
   If this will last forever
   And I will pay no mind
   When I won’t and it won’t cause it can’t
   It just can’t
   It’s not supposed to

Verse

   Is there a second in time that I looked around
   Did I sail through or drop my anchor down
   Is anything enough to kiss the ground
   And say I’m here now and she’s here now

   Ooh ooh ooh ooh
   Ooh ooh ooh ooh

Bridge

   So much wasted in the afternoon
   So much sacred in the month of June
   How bout you

mini-interlude
Chorus

   And I will wait to find
   If this will last forever
   And I will wait to find 
   That it won’t and it won’t it won’t 
   And I will pay no mind
   worry about the way the weather
   And I will waste no time
   Remembering our life together

 Ending/Last Chord
Suggest correction
comments
print report bad tab
7 comments total. Showing first comments. show 1 bad comment
+1 reply
Advilmonkeyman 120 wrote on July 3 2009, 07:46 am

Doommaker is an *******!

+3 reply
j2dac 74 wrote on July 6 2009, 09:52 pm

agreed, this sounds pretty sick to me, whether or not its EXACTLY how john plays it, it sounds really good, great tab imagin!

guest
You may want to rate the tab now too:
select rating
Please do not post tabs as comments. Select "correction" instead!