Oops, an error
Loading. Please wait.

Clarity Tab

version 2
version 2

Acoustic

Whole song

Interactive

17,025 views 6 this week
5 commentsread comments
1 2 3 4 5
x 5
add to favorites
launch autoscroll
font size
0
reset
how to read this tab
guitar tuner
Autoscroll
slow
fast
+/-
esc
set tempo
stop
Help us to improve Ultimate-Guitar.com Take our survey!
×
Author
Difficulty
intermediate
----------------------------------------------------------------------------
                     CLARITY (acoustic) - John Mayer
----------------------------------------------------------------------------
Tabbed by: Grady
Email: grady_21@yahoo.com
**check out the "Yahoo Exclusive Performance" of Clarity by John Mayer on Yahoo's 
to get a better look**

Tuning: standard

INTRO: finger picked (* = slap)
e|---------*--------*-------*--------*-------------------------------------|
B|---------*--------*-------*--------*-------------------------------------|
G|---------*--------*---6-6-*---6--6-*-------------------------------------|
D|-----4-4-*---4--4-*---4-4-*---4--4-*-------------------------------------|
A|-----2-2-*---2--2-*---5-5-*--5--5--*-------------------------------------|
E|-----3-3-*--3--3--*-------*--------*-------------------------------------|

**play this through the first two verses, including the "o'woo" stuff**

CHORUS
e|-----2----2----2----2----2----2----5-------------------------------------|
B|-----2h3--2h3--2h3--2h3--2h3--3----3-------------------------------------|
G|-----2----2----2----2----2----2----2-------------------------------------|
D|-----0h4--0h4--0h4--0h4--0h4--4----4-------------------------------------|
A|-----x----x----x----x----x----x----2-------------------------------------|
E|-----3----3----3----3----3----2----2-------------------------------------|

**Use your thumb on E, bar the bottom three with your pointer finger, and hammer with 
middle and ring fingers. Then bar on the 2nd fret for the last chord.**

3rd VERSE (strum)
e|-------------------------------------------------------------------------|
B|-------------------------------------------------------------------------|
G|-----------------6-6--6--6-----------------------------------------------|
D|-----4-4--4--4---4-4--4--4-----------------------------------------------|
A|-----2-2--2--2---5-5--5--5-----------------------------------------------|
E|-----3-3--3--3-----------------------------------------------------------|

BRIDGE 3x "So much wasted..."
e|-------------------------------------------------------------------------|
B|-------------------------------------------------------------------------|
G|---------------------14--14--14-14---------------------------------------|
D|-----14--14--14-14---12--12--12-12---12--12--12---------12--12-12--------|
A|-----12--12--12-12---13--13--13-13---10--10--10-15--15--10--10-10-15--15-|
E|-----13--13--13-13-------------------11--11--11-11--11--11--11-11-11--11-|

"How 'bout you...?"
e|-------------------------------------------------------------------------|
B|-------------------------------------------------------------------------|
G|---------------------------------------------11-11--11--11---------------|
D|-----10--10--10-10--10--10--10-10--11\-------10-10--10--10---------------|
A|-----8---8---8--8---8---8---8--8----9\--------9--9---9---9---------------|
E|-----9---9---9--9---9---9---9--9---10\-----------------------------------|
**slide a good ways down the neck here ^**

CHORUS (played until song ends)
e|-----2----2----2----2----2----2----5-------------------------------------|
B|-----2h3--2h3--2h3--2h3--2h3--3----3-------------------------------------|
G|-----2----2----2----2----2----2----2-------------------------------------|
D|-----0h4--0h4--0h4--0h4--0h4--4----4-------------------------------------|
A|-----x----x----x----x----x----x----2-------------------------------------|
E|-----3----3----3----3----3----2----2-------------------------------------|

**Good luck with this tab. It's pretty fun once you get the hang of it. Send me an 
if it needs fixing, if it sucks, or if it's the greatest tab ever...

| /  slide up
| \  slide down
| h  hammer-on
| p  pull-off
| ~  vibrato
| +  harmonic
| x  Mute note
============================================================================
Suggest correction
comments
print report bad tab
5 comments total. Showing first comments.
0 reply
punk-man12 31 Jul 06, 2009 01:23 PM

This is a great tab! Which acoustic performance are you tabbing?

0 reply
Sozes Flying V 124 Aug 09, 2009 09:37 PM

I echo punk-man12

+1 reply
DrewMeyer 771 Nov 12, 2011 11:16 PM

Great job, much better than the other tab!

guest
You may want to rate the tab now too:
select rating
Wanna post a correction for this tab? Suggest correction