Oops, an error
Loading. Please wait.

Clarity Tab

version 3
version 3

Whole song

Interactive

13,789 views 24 this week
no commentswrite comment
1 2 3 4 5
x 5
add to favorites
launch autoscroll
font size
0
reset
how to read this tab
guitar tuner
Autoscroll
slow
fast
+/-
esc
set tempo
stop
Help us to improve Ultimate-Guitar.com Take our survey!
×
Difficulty
novice
John Mayer: Clarity
Tabbed by: Teal Howard

This is the version on YouTube where the phone rings at the end. It has a different into 
also. http://www.youtube.com/watch?v=UJ1qp-kdKW4 My first tab btw, standard tuning


Part 1: Intro

e |-------------x--------------x-------|-----------x---------------x----------|
B |-------------x--------------x-------|---------0-x------------0--x-----(0)--|
G |---------0---x----------0---x-------|-------6---6---------6-----x--(6)-----|
D |-------4-----x--------4-----x--4----|-----4-----x------0h4------x----------|
A |-----2-------x----0h2-------x----2--|---5-------x----5----------x----------|
E |---3---------x--3-----------x-------|-----------x---------------x----------|

Part 2: Ooh ooh ooh ooh
e |-------------x--------------x-------|-----------x---------------x----------|
B |---------0---x--------------x-------|---------0-x---------------x----------|
G |-----7-------x----7----7----x-------|-----14----x---14----14----x----------|
D |-5-----------x----5----5----x-------|-12--------x---12----12----x----------|
A |-------------x--------------x-------|-----------x---------------x----------|
E |-------3-----x----3----3----x-------|-------10--x---10----10----x----------|

e |-------------x--------------x-------|
B |----14-------x--------------x-------|
G |---------14--x---14----14---x-------|
D |-12------12--x---12----12---x-------|
A |-------------x--------------x-------|
E |------10-10--x---10----10---x-------|

Part 3: Chorus
e |-----------12------5----------------|
B |----12-----10------3----------------|
G |----12------9------0----------------|
D |-----0-----11------4----------------|
A |----10------9------2----------------|
E |------------------------------------|

Part 3: Ending
e |-----------12--|---------5----------|
B |----12-----10--|---------3----------|
G |----12------9--|---------0----------|
D |-----0-----11--|---------4----------|
A |----10------9--|---------2----------|
E |---------------|--------------------|

(1)

    I worry
    I weigh three times my body
    I worry
    I throw my fear around
    But this morning
    There's a calm I can’t explain
    The rock candy's melted, only diamonds now remain

(2) Ooh ooh ooh ooh

(1) By the time I recognize this moment
    This moment will be gone
    But I will bend the light pretending
    That it somehow lingered on
    (When all I got's..)

(2) Ooh ooh ooh ooh
    Ooh ooh ooh ooh

(3) And I will wait to find
    If this will last forever
    And I will wait to find
    If this will last forever
    And I will pay no mind
    That it won't and it won't because it can't


(2) Ooh ooh ooh ooh
    Ooh ooh ooh ooh
Suggest correction
comments
print report bad tab
guest
You may want to rate the tab now too:
select rating
Wanna post a correction for this tab? Suggest correction