Oops, an error
Loading. Please wait.
We have Chord Pro version of Daughters.
It's the closest thing you can get to the original song and it has interactive parts. Check out the tab »
×
44,071 views 9 this week
1 commentread comment
1 2 3 4 5
x 4
add to favorites
×
Save as Personal and add changes to this tab that will be seen only by you. Learn more ›
×
You can save this tab as Personal to edit and correct it or add notes. All changes will be seen only by you. Learn more »
launch autoscroll
font size
0
reset
how to read this tab
guitar tuner
edit
Autoscroll
slow
fast
+/-
esc
set tempo
stop
Author
-------------------------------------------------------------------------------
                             Daughters - John Mayer
-------------------------------------------------------------------------------
Tabbed by:theprince87
Email:theprince87@gmail.com

hey everyone! I have been playing for a few years now and have been tabbing songs as I
but this is first time I have posted one online. Let me know what you think. email me if
good, bad, any corrections necessary, etc... there are two guitar parts. I only tabbed 
first guitar which carries most of the weight of the song. The second guitar
with solos and little details here and there. later.
peace.

Tuning: Standard

Intro:
e|---------------------------------------------------------------------------|
B|---------------------------------------------------------------------------|
G|-----7-------7-------7-------7-------7-------7-------7-------7-------------|
D|-----7-------5-------5-------4-------7-------5-------5-------4-------------|
A|-------------7---------------5---------------7---------------5-------------|
E|-----7-------x-------x---------------7-------x-------x---------------------|

Verse 1
e|---------------------------------------------------------------------------|
B|---------------------------------------------------------------------------|
G|-----7-------7-------7-------7-------7-------7-------7-------7--7--7--7----|
D|-----7-------5-------5-------4-------7-------5-------5-------4--4--5--7----|
A|-------------7---------------5---------------7---------------5--5--5--5----|
E|-----7-------x-------x---------------7-------x-------x---------------------|

e|---------------------------------------------------------------------------|
B|---------------------------------------------------------------------------|
G|-----7-------7-------7-------7-------7-------7-------7-------7-------------|
D|-----7-------5-------5-------4-------7-------5-------5-------4-------------|
A|-------------7---------------5---------------7---------------5-------------|
E|-----7-------x-------x---------------7-------x-------x---------------------|

Chorus:
e|---------------------------------------------------------------------------|
B|---------------------------------------------------------------------------|
G|-----7-------7-------7-------7-------7-------7-------7-------7-------------|
D|-----7-------6-------5-------4-------7-------6-------5-------4-------------|
A|-----------------------------5-------------------------------5-------------|
E|-----7-------7-------x---------------7-------7-------x---------------------|

e|---------------------------------------------------------------------------|
B|---------------------------------------------------------------------------|
G|-----7-------7-------7-------7-------7-------7-------7-------7-------------|
D|-----7-------6-------5-------4-------7-------6-------5-------4-------------|
A|-----------------------------5-------------------------------5-------------|
E|-----7-------7-------x---------------7-------7-------x---------------------|


e|---------------------------------------------------------------------------|
B|---------------------------------------------------------------------------|
G|-----7------7------7-------7--7--7--7--------7-----7-----7-----7--7--7--7--|
D|-----7------5------5-------4--4--5--7--------7-----5-----5-----4--4--5--7--|
A|------------7--------------5--5--5--5--------------7-----------5--5--5--5--|
E|-----7------x------x-------------------------7-----x-----x-----------------|
(here play quarter notes (i think) but listen to the song to get the correct timing.)

e|---------------------------------------------------------------------------|
B|---------------------------------------------------------------------------|
G|-----7------7------7------7--7--7--7---------------------------------------|
D|-----7------5------5------4--4--5--7---------------------------------------|
A|------------7-------------5--5--5--5---------------------------------------|
E|-----7------x------x-------------------------------------------------------|

Chorus:
e|---------------------------------------------------------------------------|
B|---------------------------------------------------------------------------|
G|-----7-------7-------7-------7-------7-------7-------7-------7-------------|
D|-----7-------6-------5-------4-------7-------6-------5-------4-------------|
A|-----------------------------5-------------------------------5-------------|
E|-----7-------7-------x---------------7-------7-------x---------------------|

e|---------------------------------------------------------------------------|
B|---------------------------------------------------------------------------|
G|-----7-------7-------7-------7-------7-------7-------7-------7-------------|
D|-----7-------6-------5-------4-------7-------6-------5-------4-------------|
A|-----------------------------5-------------------------------5-------------|
E|-----7-------7-------x---------------7-------7-------x---------------------|

Bridge:
e|---------------------------------------------------------------------------|
B|-----10------8-------7-------7-------5-------------------------------------|
G|-----9-------9-------7-------6-------6-------7-----------------------------|
D|-----10------8-------7-------5-------5-------7-----------------------------|
A|---------------------------------------------------------------------------|
E|-----10--------------------------------------7-----------------------------|

e|-------------x-------x-------x-------x-------x-------x-------x-------------|
B|-------------3-------3-------3-------2-------3-------5-------7-------------|
G|-----7-------2-------2-------x-------x-------x-------x-------x-------------|
D|-----5---------------3-------2-------2-------4-------5-------7-------------|
A|-----7---------------------------------------------------------------------|
E|-----x-------2-------x-------x-------x-------x-------x-------x-------------|


Chorus:
e|---------------------------------------------------------------------------|
B|---------------------------------------------------------------------------|
G|-----7-------7-------7-------7-------7-------7-------7-------7-------------|
D|-----7-------6-------5-------4-------7-------6-------5-------4-------------|
A|-----------------------------5-------------------------------5-------------|
E|-----7-------7-------x---------------7-------7-------x---------------------|

e|---------------------------------------------------------------------------|
B|---------------------------------------------------------------------------|
G|-----7-------7-------7-------7-------7-------7-------7-------7-------------|
D|-----7-------6-------5-------4-------7-------6-------5-------4-------------|
A|-----------------------------5-------------------------------5-------------|
E|-----7-------7-------x---------------7-------7-------x---------------------|
(repeat chorus to end)


| /  slide up
| \  slide down
| h  hammer-on
| p  pull-off
| ~  vibrato
| +  harmonic
| x  Mute note
===============================================================================
Suggest correction
Creating personal tab
Creating personal tab
You can edit any tab online and save it as your Personal.

You can edit, replace or remove any tab part or add personal notes – all changes will be seen only by you.

Personal tabs can be accessed anytime from any device, even offline.
Learn more »
comments
print report bad tab
1 comment total.
0 reply
blur819 1,341 Mar 20, 2010 07:08 AM

There it is! 5* THX

guest
You may want to rate the tab now too:
select rating
Wanna post a correction for this tab? Suggest correction