Oops, an error
Loading. Please wait.

Edge Of Desire Tab

version 4
version 4

Whole song

Interactive

1,216 views 1 this week
no commentswrite comment
1 2 3 4 5
please rate
add to favorites
launch autoscroll
font size
0
reset
how to read this tab
guitar tuner
Tab Pro tools
  • play this tab
  • loop segment
  • change instrument
  • show fretboard
  • metronome
×
Best way to learn
"Edge Of Desire"
Autoscroll
slow
fast
+/-
esc
set tempo
stop
Difficulty
Capo
advanced
2nd fret
Hello! It's me, Rayan M. ! This is my Second Tab. You Meet my First Tab Here
http://tabs.ultimate-guitar.com/r/randy_houser/how_country_feels_tab.htm
I Hope You Like!
Please Rate and Comment! Enjoy!

John Mayer - Edge of Desire

Tuning: Standard

(CAPO ON 2ND FRET)

Intro: D6/G     E5/C     Am      D4
        |X|      |0|     |X|     |3|
        |0|      |3|     |1|     |3|
        |2|      |4|     |2|     |2|
        |4|      |2|     |2|     |0|
        |5|      |3|     |0|     |X|
        |3|      |X|     |X|     |X|

 D6/G
e|----------------------------------------------------------------|
B|-------------------------0-------------------------------0------|
G|------------2--------------2-0--------------2--------------2-0--|
D|------4--------4------4---------------4--------4------4---------|
A|----5----5----------5---------------5----5----------5-----------|
E|--3---------------3---------------3---------------3-------------|

 E5/C
e|-------------------------0-------------------------------0------|
B|------------3--------------3----------------3--------------3----|
G|------4--------4------4------5--------4--------4------4------5--|
D|----2----2----------2---------------2----2----------2-----------|
A|--3---------------3---------------3---------------3-------------|
E|----------------------------------------------------------------|

 Am                               D4
e|--------------------------------|------3----2----0--------------|
B|------------1---------0-1-0-----|-------------------3--1--0-----|
G|------2--------2----------------|----2----2----2-------------2--|
D|----2----2----------2--------2--|--0----------------------------|
A|--0---------------0-------------|-------------------------------|
E|--------------------------------|-------------------------------|

OBS: The Part 1 and the Part 2 are made like the intro.

PART 1:

D6/G
Young and full of running
        E5/C
Tell me where has that taken me?
       Am             D4                  D6/G
Just a great figure eight or a tiny infinity?

D6/G
Love is really nothing
      E5/C
But a dream that keeps waking me
               Am                    D4
For all of my trying, we still end up dying
           D6/G
How can it be?


CHORUS:

 E5/C
e|------8--------------8--------------8--------------8--------|
B|--12----12--8----12----12--8----12----12--8----12----12--8--|
G|------------------------------------------------------------|
D|------------------------------------------------------------|
A|------------------------------------------------------------|
E|--8--------------8--------------8--------------8------------|


 D6/G
e|------------------------------------------------------------|
B|--0--3--1--0-----0--3--1--0-----0--3--1--0-----0--3--1--0---|
G|------------------------------------------------------------|
D|------------------------------------------------------------|
A|------------------------------------------------------------|
E|--3--------------3--------------3--------------3------------|

E5/C                                              D6/G
Don't say a word, just come over and lie here with me
E5/C                                              D6/G
'Cause I'm just about to set fire to everything I see
E5/C                                              D6/G
I want you so bad I'll go back on the things I believe
E5/C                                              D6/G
There I just said it, I'm scared you'll forget about me



PART 2:
   
   D6/G
So young and full of running
            E5/C
All the way to the Edge of Desire
          Am                        D4
Steady my breathing, silently screaming
          D6/G
"I have to have you now"

 D6/G
Wired and I'm tired
            E5/C
Think I'll sleep in my clothes on the floor
              Am                        D4
Or maybe this mattress will spin on its axis
         D6/G
And find me on yours



CHORUS:

 E5/C
e|------8--------------8--------------8--------------8--------|
B|--12----12--8----12----12--8----12----12--8----12----12--8--|
G|------------------------------------------------------------|
D|------------------------------------------------------------|
A|------------------------------------------------------------|
E|--8--------------8--------------8--------------8------------|


 D6/G
e|------------------------------------------------------------|
B|--0--3--1--0-----0--3--1--0-----0--3--1--0-----0--3--1--0---|
G|------------------------------------------------------------|
D|------------------------------------------------------------|
A|------------------------------------------------------------|
E|--3--------------3--------------3--------------3------------|

E5/C                                              D6/G
Don't say a word, just come over and lie here with me
E5/C                                              D6/G
'Cause I'm just about to set fire to everything I see
E5/C                                              D6/G
I want you so bad I'll go back on the things I believe
E5/C                                              D6/G
There I just said it, I'm scared you'll forget about me

PRE-SOLO:

 D6/G
e|----------------------------------------------------|
B|--0-1-3-1-0----0-1-3-1-0----0-1-3-1-0----0-1-3-1-0--|
G|----------------------------------------------------|
D|----------------------------------------------------|
A|----------------------------------------------------|
E|--3----------3------------3------------3------------|

SOLO (The solo is made slowly):

    G          E          C          G
e|----------------------------------------------|
B|----------------------------------------------|
G|------------------------5---------------------|
D|--5----------2----------5----------5----------|
A|--5----------2----------3----------5----------|
E|--3----------0---------------------3----------|

    G          E          C                          D
e|--5/7--------5/7--------5/7\5/7\5/7\5~----------7--5/7--5--5~---|
B|-----------------------------------------8--10------------------|
G|----------------------------------------------------------------|
D|---------------------------------------------------0-------0-0--|
A|----------------------------------------------------------------|
E|--3---3-3-3--0---0-0-0--8-----------8-8-------------------------|

             E                  C                        G
e|--------7--7/8--7-7~-------7--7/8--7-7~-----5/7~--5-0--3~-------|
B|--8--10---------------8--10-------------------------------------|
G|----------------------------------------------------------------|
D|----------------------------------------------------------------|
A|----------------------------------------------------------------|
E|-----------0------0-0-0-------8------8-8-8-------------3-3-3----|


              G          
e|--5/7~--10--5/7~-----7--8--10--10/14~--10--15~-|
B|-----------------------------------------------|
G|-----------------------------------------------|
D|-----------------------------------------------|
A|-------------------------------------------3---|
E|------------3----3-3-3-------8-----------------|


CHORUS:

 E5/C
e|------8--------------8--------------8--------------8--------|
B|--12----12--8----12----12--8----12----12--8----12----12--8--|
G|------------------------------------------------------------|
D|------------------------------------------------------------|
A|------------------------------------------------------------|
E|--8--------------8--------------8--------------8------------|


 D6/G
e|------------------------------------------------------------|
B|--0--3--1--0-----0--3--1--0-----0--3--1--0-----0--3--1--0---|
G|------------------------------------------------------------|
D|------------------------------------------------------------|
A|------------------------------------------------------------|
E|--3--------------3--------------3--------------3------------|

E5/C                                              D6/G
Don't say a word, just come over and lie here with me
E5/C                                              D6/G
'Cause I'm just about to set fire to everything I see
E5/C                                              D6/G
I want you so bad I'll go back on the things I believe
E5/C                                              D6/G
There I just said it, I'm scared you'll forget about me


FINAL RIFF:

D6/G
e|----------------------------------------------------|
B|--0-1-3-1-0----0-1-3-1-0----0-1-3-1-0----0-1-3-1-0--|
G|----------------------------------------------------|
D|----------------------------------------------------|
A|----------------------------------------------------|
E|--3----------3------------3------------3------------|
comments
We did not receive enough feedback on this tab! Please rate:
print report bad tab
1 2 3 4 5
I want to post or [tab]
guest
You may want to rate the tab now too:
select rating
Please do not post tabs as comments. Select "correction" instead!