Oops, an error
Loading. Please wait.

Free Fallin Tab

version 4
version 4

Solo

Whole song

Interactive

38,072 views 354 this week
1 commentread comment
1 2 3 4 5
excellent!
x 8
add to favorites
launch autoscroll
font size
0
reset
how to read this tab
guitar tuner
Tab Pro tools
  • play this tab
  • loop segment
  • change instrument
  • show fretboard
  • metronome
Autoscroll
slow
fast
+/-
esc
set tempo
stop
Difficulty
intermediate
Standard Tuning

Capo 3

This isn't exactly the way John Mayer plays it, (mostly because he plays it 
differently each time) but it's close enough; and his rendition is fantastic.
It seems hard at first but it really isn't one you figure it out

Play all the notes on the low E string with you thumb

X=slap

Intro:
|--------------------------------------------------------------------x----|
|--3--------------3-3--2---------2^3-----------3^2-0~----0------0--3-x-2--|
|-----2-----------2-2--2-------2-------------2-------------0----0--2-x-2--|
|--0----0--------------2-----2---------2----0------0~--------0--0----x-2--|
|----------------------0---0---------0-------------------------------x-0--|
|----------0--3---3-2--------------------2---------3~--3--------3--2-x----|
                                                      
                                
|-------------------------------------------------------x-----|
|--------2^3-------------3^2----0~---0----------0----3--x--2--|
|------2---------------2---------------0---0----0----2--x--2--|
|----2----------2----0----------0~-------0------0-------x--2--|
|--0----------0-----------------------------------------x--0--|
|-------------------2-----------3~-3------------3----2--x-----|
                      

|------------------------------------x------------------------|
|---------3^2--0~-----0---------0--3-x--2---------2^3---------|
|-------2------0~-------0---0---0--2-x--2-------2-------------|
|-----0--------0~---------0-----0----x--2-----2---------------|
|------------------------------------x--0---0-----------------|
|--2-----------3~---3-----------3--2-x------------------------|



Verse & Chorus

                                
|--------x-------------------------x-----------------------------------|
|------3-x-3------3----------3---3-x----2------2----2---3---0-----0----|
|-----2--x-2---------2-------2---2-x----2-----2-2---2-------0-------0--|
|----0---x-------------------------x----2----2---2---------------------|
|--------x-------------------------x----0---0--------------------------|
|--2-----x-3---3-------3-----3---2-x----------------2-------3---3----3-|

|-------x-------------------0^2-----------------------------------------|
|-0--3--x--2------2^3-------3----3--3----3------3---3-------2-----2^3---|
|-0--0--x--2----2-----------2-------0------0----0---2-------2----2------|
|-------x--2---2--------2-----------------------------------2---2------2|
|-------x--0--0-------0---------------------------------(0)-0-0-------0-|
|-3--3--x---------------------------3--3-----3--3---2-------------------|

|--0^2-----------------------------------------------|
|--3----3--3----3-------3---3--------2-------2^3-----|
|--2-------0------0-----0---2--------2-----2---------|
|------------------------------------2---2---------2-|
|--------------------------------(0)-0--0--------0---|
|----------3--3-----3---3---2------------------------|


Chords:

e|---0---x-----0---0----------------------------|
B|---3---3-----3---2^3--------------------------|
G|---2---0-----2---2----------------------------|
D|---0---0-----0---2----------------------------|
A|---0---x-----0---0----------------------------|
E|---2---3-----2---0----------------------------|


Hope I helped!
comments
print report bad tab
1 comment total.
0 reply
Mukul2k wrote on February 26 2015, 10:06 am

Thanx gr8 work

I want to post or [tab]
guest
You may want to rate the tab now too:
select rating
Please do not post tabs as comments. Select "correction" instead!