Oops, an error
Loading. Please wait.

Free Fallin Chords

version 6
version 6

Interactive

16,410 views 45 this week
no commentswrite comment
1 2 3 4 5
accurate
x 4
add to favorites
launch autoscroll
font size
0
reset
transpose
0
reset
simplify chords
- display chords -
guitar tuner
Tab Pro tools
  • play this tab
  • loop segment
  • change instrument
  • show fretboard
  • metronome
Autoscroll
slow
fast
+/-
esc
set tempo
stop
Contributor
Difficulty
intermediate
This is a tab if you want to do some in between licks. I'm not gonna include them, 
but using the C F G chords instead of E A B makes it a little easier 
to add in 'personality notes.' I have it Capo 5 but if you dont want to play
 with the track because it is too high to sing, just mover down.


CAPO 5

Intro

     C        C/F        C/F         C           G5
e----0--------1-----------1----------0------------3----------------------|
b----1--------1-----------1----------1------------3----------------------|
g----0--------0-----------0----------0------------0----------------------|
d----2--------2-----------2----------2------------0----------------------| 
a----3--------3-----------3----------3------------2----------------------|
E----X--------X-----------X----------X------------3----------------------|


Second time through, make sure to include the Low E over your first C chord
and switch the C/F to a straight F major.

    E/C      Fmaj        Fmaj       C          G5
e---0----------1---------1----------0----------3----------------------------|
b---1----------1---------1----------1----------3----------------------------|
g---0----------2---------2----------0----------0----------------------------|
d---2----------3---------3----------2----------0----------------------------|
a---3----------3---------3----------3----------2----------------------------|
E---0----------1---------1----------X----------3----------------------------|




(Verse 1)
        C    F
She's a good girl
F C       G5
Loves her momma
      E/C F        F C    G5
loves jesus and america too
        E/C    F    F  C       G5
she's a good girl crazy bout elvis
      C  F           F  C      G5
loves horses and her boyfriend too


E/C          F          F    C       G5 (repeat)


(Verse 2)
       E/C    F   F     C    G5
It's a Long Day Livin in recita
          E/C    F   F      C           G5
there's a free way runnin through the yard
          E/C   F           F     C    G5
And i'm a bad Boy Cause I Don't even miss her
          E/C   F       F   C       G5
And I'm A bad boy for breakin her heart


(Chorus)
        E/C  F   F C    G5
And i'm freeeeeeeeeeeee
       E/C
free fallin
F         F C    G5
fallin


(Verse 3)
        C  F
All the vampires
F      C           G5
Walkin through the valley
          E/C    F       F C       G5
They move west down ventura boulevard
            E/C   F    F       C       G5
And all the bad boys standin in the shadows
        E/C    F         F         C      G5
and the good girls are home with broken hearts


(Chorus)
        C  F   F C    G
And i'm freeeeeeeeeeeee
       C
free fallin
F         F C    G
fallin


(Bridge)
C        F              F C    G5
    Free Fallin now i'm   free fallin
        E/C      F              F C    G5
Now i'm   Free fallin now i'm   free fallin
        E/C      F              F C    G5
Now I'm   Free fallin now i'm   free fallin
       E/C      F              F C    G5
Now i'm   Free fallin now i'm   free fallin


(Verse 4)
        C    F    A E      G5
I wanna back down over mulholland
        E/C     F    F    C      G5
I wanna write a, a name in the sky
        E/C    F    F   C    G5
I wanna free fall out into nothin
             E/C     F            F   C     G5
Oh i'm gonna leave this, this world for a while


(Final Chorus)
        C  F   F C    G5
And i'm freeeeeeeeeeeeee
       C
free fallin
F         F C    G5
fallin


(Outro)
       C     F        F  C     G
Free fallin, fallin
       C     F        F  C     G
Free fallin, fallin
       C     F        F  C     G
Free fallin, fallin


Have fun with it.
comments
print report bad tab
I want to post or [tab]
guest
You may want to rate the tab now too:
select rating
Please do not post tabs as comments. Select "correction" instead!