Oops, an error
Loading. Please wait.

Free Fallin Live tab

version 7
version 7

Interactive

1,199 views 177 this week
no commentswrite comment
1 2 3 4 5
x 4
add to favorites
×
Save as Personal and add changes to this tab that will be seen only by you. Learn more ›
×
You can save this tab as Personal to edit and correct it or add notes. All changes will be seen only by you. Learn more »
launch autoscroll
font size
0
reset
how to read this tab
guitar tuner
edit
Autoscroll
slow
fast
+/-
esc
set tempo
stop
-------------------------------------------------------------------------------
                             Free Fallin' - John Mayer (originally Tom Petty)
-------------------------------------------------------------------------------

Tabbed by: Stephen K.
Email: rccollector13@gmail.com

Tuning: Standard, Capo 3rd Fret

Note: an x signifies that that string is being slapped. It's a bit tough to tab 
out, easier to watch. I have a youtube tutorial for the song here: 
http://www.youtube.com/watch?v=P7mxcGoHAls

This is the version by Stephen K., but I've cleaned it up to get it to match his 
youtube tutorial. I've corrected it as accurately as I could.

DISCLAIMER: All credit goes to Stephen K. for these tabs.

e|---------------------------------------------------------------------------|
B|--3--------3-----3-3---2-------2h3p2------3p2----0-------0--3---2------2h3-|
G|-----2-----0-----0-2---2------2-----2----2---2---0------0---2---2-----2----|
D|--0---0--------------0------2-----------0--------------------0-------2-----|
A|-----------------------0---0------------------------------------0---0------|
E|--------0--3-----3-2------------------2----------3-----3----2--------------|

e|-----------3-----3-2-------------------------------------------------------|
B|--3--------3-----3-3---2-------2h3p2------3p2----5p3-----0--3---2------2h3-|
G|-----2-----0-----0-2---2------2-----2----2-------0------0---2---2-----2----|
D|--0---0--------------0------2-----------0--------------------0-------2-----|
A|-----------------------0---0------------------------------------0---0------|
E|--------0--3-----3-2------------------2------2---3-----3----2--------------|

e|---------------------------------------------------------------------------|
B|--3--------3---3------3-----3--3-----2------x/3----------------------------|
G|--2--------0-----0----------0--2-----2--2---x------------------------------|
D|------0-x----------x--------------x-------2--------------------------------|
A|----------------------------------x--0------x------------------------------|
E|--2-----x--3-------x-----3--3--2-------------------------------------------|

e|---------------------------------------------------------------------------|
B|--3--------0---0------3-----3--3-----2------x/3----------------------------|
G|--2--------0-----0----------0--2-----2--2---x------------------------------|
D|------0-x----------x--------------x-------2--------------------------------|
A|----------------------------------x--0------x------------------------------|
E|--2-----x--3-------x-----3--3--2-------------------------------------------|

e|-----------3---------3------3--2-------------------------------------------|
B|--3--------3--3-------------3--3-----2------x/3----------------------------|
G|--2--------0-----0----------0--2-----2--2---x------------------------------|
D|------0-x----------x--------------x-------2--------------------------------|
A|----------------------------------x--0------x------------------------------|
E|--2-----x--3-------x--3-----3--2-------------------------------------------|

e|---------------------------------------------------------------------------|
B|--------3----0--------------0------0--3------2------x/3--------------------|
G|------2------0---0-----------------0--2------2--2---x----------------------|
D|----0----x----------0---x----------------x--------2------------------------|
A|-----------------------------------------x---0------x----------------------|
E|--2------x-3------------x------3---3--2------------------------------------|

Bridge:

e|---------------------------------------------------------------------------|
B|--3--3--3--3--3--3--3--3--3--3--3--2--2--2--2--0---------------------------|
G|--2--2--2--0--0--0--0--0--2--2--2--2--2--2--2--0---------------------------|
D|---------------------------------------------------------------------------|
A|-----------------------------------0---------------------------------------|
E|--2-----2--3--------------2-----2------------------------------------------|

e|---------------------------------------------------------------------------|
B|--3--3--3--0--0--0--0--0--3--3--3--2--2--2--2--0---------------------------|
G|--2--2--2--0--0--0--0--0--2--2--2--2--2--2--2--0---------------------------|
D|---------------------------------------------------------------------------|
A|-----------------------------------0---------------------------------------|
E|--2-----2--3--------------2-----2------------------------------------------|

e|---------------------------------------------------------------------------|
B|--3--3--3--3--3--3--3--3--3--3--3--2--2--2--2--0---------------------------|
G|--2--2--2--0--0--0--0--0--2--2--2--2--2--2--2--0---------------------------|
D|---------------------------------------------------------------------------|
A|-----------------------------------0---------------------------------------|
E|--2-----2--3--------------2-----2------------------------------------------|

e|---------------------------------------------------------------------------|
B|--3--3--3--0--0--0--0--0--3--3--3--2-----3--------3---3-3---2------2h3p2---|
G|--2--2--2--0--0--0--0--0--2--2--2--2--------2-----0---0-2---2-----2-----2--|
D|-----------------------------------------0---0------------0-----2----------|
A|-----------------------------------0------------------------0--0-----------|
E|--2-----2--3--------------2-----2--------------0--3---3-2------------------|

************************************

| /   slide up
| \   slide down
| h   hammer-on
| p   pull-off
| ~   vibrato
| +   harmonic
| x   Slap note
| b   Bend
| pb  Pre-bend
| br  Bend release
| pbr Pre-bend release
| brb Bend release bend

************************************
Suggest correction
Creating personal tab
Creating personal tab
You can edit any tab online and save it as your Personal.

You can edit, replace or remove any tab part or add personal notes – all changes will be seen only by you.

Personal tabs can be accessed anytime from any device, even offline.
Learn more »
comments
print report bad tab
guest
You may want to rate the tab now too:
select rating
Wanna post a correction for this tab? Suggest correction