Oops, an error
Loading. Please wait.

Friends Lovers Or Nothing Tab

version 2
version 2

Whole song

5,126 views 3 this week
no commentswrite comment
1 2 3 4 5
accurate
x 1
add to favorites
launch autoscroll
font size
0
reset
how to read this tab
guitar tuner
Tab Pro tools
  • play this tab
  • loop segment
  • change instrument
  • show fretboard
  • metronome
×
Best way to learn
"Friends Lovers Or Nothing"
Autoscroll
slow
fast
+/-
esc
set tempo
stop
Contributor
-----------------------------------------------------------------------------
                Friends Lovers Or Nothing (Intro) - John Mayer
-----------------------------------------------------------------------------
Tabbed by: tearhere619
Email: jv061891@gmail.com

Tuning: Standard

e|--------------------------------------------------------------------------|
B|------------------|-------10-12b14-10---------14/12p10---------------12/--|
G|------------------|---6-9-------------9----------------11---------11------|
D|---9/11-9---------|-7-------------------11-13-----------------9-12--------|
A|-----------11/9-7-|-------------------------------------------------------|
E|--------------------------------------------------------------------------|

e|---------------------------|
B|--14/12-10-------10----10--|
G|-----------11-------12-----|
D|--------------12-----------|
A|---------------------------|
E|---------------------------|

| /  slide up
| \  slide down
| h  hammer-on
| p  pull-off
| ~  vibrato
| +  harmonic
| x  Mute note
=============================================================================
comments
We did not receive enough feedback on this tab! Please rate:
print report bad tab
1 2 3 4 5
I want to post or [tab]
guest
You may want to rate the tab now too:
select rating
Please do not post tabs as comments. Select "correction" instead!