Oops, an error
Loading. Please wait.

Friends Lovers Or Nothing Tab

version 3
version 3

Whole song

6,379 views 1 this week
1 commentread comment
1 2 3 4 5
please rate
add to favorites
launch autoscroll
font size
0
reset
how to read this tab
guitar tuner
Autoscroll
slow
fast
+/-
esc
set tempo
stop
Help us to improve Ultimate-Guitar.com Take our survey!
×
Author
Difficulty
intermediate
Tuning: Standard

John Plays this on his 61 Re-Issue Gibson SG

slightly overdriven intro, tone knob rolled back a bit, (humbucker) neck pickup
i will post a youtube video of the intro soon.

pick the notes individually, dont let them ring.

Key is Bb

e|--------------------------------------------------------------------------|
B|------------------------------10-12^(14)-10----------12^(14)-12~~-10------|
G|---9s11-9-------------------9---------------9~----8~~----------------11~~-|
D|----------10s9-7~~-------11--------------------11-------------------------|
A|----------------------12--------------------------------------------------|
E|--------------------------------------------------------------------------|

e|----------------------------------------------|
B|----------12^(14)-12-10-------10~-12^(14)-10~~|
G|--------11--------------11~-9-----------------|
D|---9--12--------------------------------------|
A|----------------------------------------------|
E|----------------------------------------------|

Key:
s slide
~ vibrato
^ bend
(number) note to bend too.

working on the solo now
chords are easy

Enjoy!
Suggest correction
Give kudos to tab author, rate the tab!
1 2 3 4 5
comments
print report bad tab
1 comment total.
0 reply
dmaji1 36 wrote on December 13 2009, 06:21 am

the youtube video is here:

http://www.youtube.com/watch?v=LwJPrjeyTMs

guest
You may want to rate the tab now too:
select rating
Wanna post a correction for this tab? Suggest correction