Oops, an error
Loading. Please wait.

Good Love Is On The Way Bass

version 1
version 1

Whole song

Interactive

23,951 views 18 this week
1 commentread comment
1 2 3 4 5
x 4
add to favorites
launch autoscroll
font size
0
reset
guitar tuner
backing track
0:00
0:00
Autoscroll
slow
fast
+/-
esc
set tempo
stop
Author
Intro

G|------------------------------------|
D|------------------------------------|
A|------------------------------------|
E|-------------------5~5----------3~3-|

Pre Verse

G|------------------------------------|
D|--------10-8-7--------7-5-4---------|
A|-------8--8-8--------5-5-5-5--------|
E|5--5-5----------3--3-3--------------|


Verse 1

G|------------------------------------|  (Repeat that until the  chorus)
D|------------------------------------|
A|------------------------------------|
E|--5--5-5-0-3-5~-3--3-3-0-2-3-4-5----|


Chorus 1

G|--------------------------------------|
D|--------------------------------------|
A|-----------0-3-5-3--------------------|
E|---2--2--2---------3--3--3--X-2-3-4-5-|

G|-------------------------------------|
D|-------------------------------------|
A|-------------------------------------|
E|-5-5-5-0-3-5~5-5-5-0-3-5~~-----------|


Bridge 1

G|----------|
D|----------|
A|----------|
E|-2-3-5~~--|(just repeat after each time the guitar plays in bridge)

G|-------------------------------------|
D|-------------------------------------|
A|10-9-7-5-----------------------------|
E|---------3-2-0~----------------------|

During the guitar solo just repeat the verse

after the guitar solo repeat the bridge


then just play the intro again and then the pre verse and then play the chorus again and 
ends in with the 3rd bridge, its my first tab so learn all the fills and stuff yourself
Suggest correction
comments
print report bad tab
1 comment total.
0 reply
cayennepepper 30 Aug 22, 2009 07:04 AM

ok

guest
You may want to rate the tab now too:
select rating
Wanna post a correction for this tab? Suggest correction