Oops, an error
Loading. Please wait.

Good Love Is On The Way Tab

version 1
version 1

Whole song

Interactive

271,208 views 417 this week
16 commentsread comments
1 2 3 4 5
excellent!
x 52
add to favorites
launch autoscroll
font size
0
reset
how to read this tab
guitar tuner
Tab Pro tools
  • play this tab
  • loop segment
  • change instrument
  • show fretboard
  • metronome
×
Best way to learn
"Good Love Is On The Way"
Autoscroll
slow
fast
+/-
esc
set tempo
stop
Contributor
Difficulty
intermediate
Good Love Is On The Way


Written by: John Mayer Trio

Album: Try

Transcribed by: Gabe

Tuning: Standard

Difficulty:***

John played this version of the song live at the Fillmore in 2005


Key:

h- Hammer On
p -Pull Off
/ -Slide Up
\ -Slide Down
x -Muted String
b -Bend
~ -Let Ring
^ -Pick Scrape Quickly
+ -Toe Down  (Wah)
o -Heel Down (Wah)


Intro (John)

e-(0)----------(0)--------(0)--------(0)-------------|
b--2~-----------2----------2----------2--------------|
g--2~----0--0---2---0--0---2---0--0---2---0--0-------|
d--2~----4--4---2---4--4---2---4--4---2---4--4-------|
a--0~----x--x---0---x--x---0---x--x---0---x--x-------|
E--------3--3-------3--3-------3--3-------3--3-------|

e----------------------------------------------------------------|
b--2-2--0^-------------------------------------------------------|
g--2-2--0^------------------------0-0----------------------------|
d--2-2--0^--------4h5p4p0-2p0-----0-0--------4h5p4p0-2p0---------|(x6)
a--0-0------0-4p0------------4p0--x-x--0-4p0------------4p0------|
E---------------------------------3-3----------------------------|

Verses

e-------------                          e-------------------------------|
b--2----------                          b--2----------------------------|
g--2---0------    ----->Fill For Verse  g--2--2-2--2----2--0h2p0-0------|
d--2---0------                          d--2---2--2--2-2---0----0-------|
a--0---x------                          a--0-----0----0----x------------|
E------3------                          E------------------3------------|
"Im a lazy lover...."                        PM..........
"Free is broken hearted..."

Chorus


e--2--2-------------5-------------------|
b--3--0--2----------5------2------------|
g--2--0--2--4--2--4/6--6\2-2------------|
d--0--0--2----------x------2------------|
a--x--x--0-----------------0------------|
E--2--3---------------------------------|
"Good love is on the..."


Bridge


e-------------------------------------|
b-----------------------------2-------|
g-------7-----7-----7---------2-------|
d-----7-----7-----7-----------2-------|(x3)
a--10-----9-----7-----5\------0-------|
E-------------------------2-3---------|
"Good to go for wherever..."

                                     +o+o
e-------------------------------0~~~~-------|
b-------------------------------0~~~~-------|
g-------7-----7-----7-----------1~~~~-------|
d-----7-----7-----7-------------2~~~~-------|
a--10-----9-----7-----5\--------2~~~~-------|
E--------------------------3-2--0~~~~-------|
"You can take all the..."
"You can have all the tricks..."


Solo (John)
    +o  + + + o o+ o+  o + o + +       o+          o+ o
e------------------------------------------12-------------------|
b------10-10-12--12gb-12b-12p10----10--12gb--12r-10-------------|
g--/11--------------------------11------------------11----------|
d---------------------------------------------------------------|
a---------------------------------------------------------------|
E---------------------------------------------------------------|

   + o   o +  o    + o o+   o+   o   +o+o     o     +  o
e---------------------------------------12-12--10-12----------------|
b--13gb-12b-12-10----10----10-10-----0^--------------12b-12-10------|
g-----------------11----11-------11--0^-----------------------------|
d------------------------------------0^-----------------------------|
a-------------------------------------------------------------------|
E-------------------------------------------------------------------|

   + o   +   o + o    +   o  +o+o  +   o          +    o+  o        +o+o+o+o
e---------------------------------------------------------------------------|
b--12gbr-12-12-13br-12br-------------------------------------------------0~-|
g------------------------11b-11-9-7-9--5b-----------7-5b-----------------0~-|
d-----------------------------------------7-7-5----------7-5-------------0~-|
a-----------------------------------------------7-5----------7-6-5--3----0~-|
E---------------------------------------------------------------------5-----|
comments
print report bad tab
16 comments total. Showing first comments. show 1 bad comment
0 reply
kevith wrote on July 7 2009, 09:34 pm

I think this a is really a pretty good tab for this song. I've played around with a few different version and this one is really quite good. In some versions he ends the song by playing the first line of the bridge again and ending on that A.

0 reply
justin_fraser wrote on July 9 2009, 09:25 pm

Ya this is a really good tab man. Thanks.

I want to post or [tab]
guest
You may want to rate the tab now too:
select rating
Please do not post tabs as comments. Select "correction" instead!