Oops, an error
Loading. Please wait.

Good Love Is On The Way Bass

version 2
version 2

Whole song

Interactive

5,210 views 9 this week
no commentswrite comment
1 2 3 4 5
x 3
add to favorites
launch autoscroll
font size
0
reset
guitar tuner
backing track
0:00
0:00
Autoscroll
slow
fast
+/-
esc
set tempo
stop
Author
I'm Intending to just throw down the basics in this tab, there is ALOT
of oppertunities for fills in this song and alot of variations, thus I feel 
it is worthless tabbing everything off the record. Just throw your own ideas in,
based around A and G (:



Intro (start throwing in the fills after a few repeats)

G|------------------------------------|
D|------------------------------------|
A|------------------------------------|
E|-------------------5-5----------3-3-|


The verse follows the same structure as the Intro, using A and G as a base,
throw in fills to your hearts content. 


Chorus Riff (Basic Idea, Pino varies it alot)

G|----------------------------------------|
D|-------4---------5----------------------|
A|-----4---4-----5---5--------------------|
E|---2------2--3------3--5-5-5--(FILL)----|



Bridge

G|---16----14---12---11-----------------------|
D|-----17----16---14---12---------------------|
A|--------------------------------------------| x3
E|------------------------2-3--5-555---(FILL)-|



G|---------------------------------------|
D|----5-4--2-----------------------------| 
A|-----------5-4--2----------------------| x1
E|-------------------0-------------------|


Finally, it's just the verse riff underneath the guitar solo (:
Suggest correction
Give kudos to tab author, rate the tab!
1 2 3 4 5
comments
print report bad tab
guest
You may want to rate the tab now too:
select rating
Wanna post a correction for this tab? Suggest correction