Oops, an error
Loading. Please wait.

Gravity Acoustic Tab

40,362 views 177 this week
2 commentsread comments
1 2 3 4 5
excellent!
x 11
add to favorites
launch autoscroll
font size
0
reset
how to read this tab
guitar tuner
Tab Pro tools
  • play this tab
  • loop segment
  • change instrument
  • show fretboard
  • metronome
Autoscroll
slow
fast
+/-
esc
set tempo
stop
Contributor
Difficulty
intermediate
John Mayer
Gravity
Continuum, 2006

   G  Gsus2  Gsus4            C
e|--------------------------------------------------|
B|-3---3-----3---3----3---3-------------------------|
G|-4---2h4---4h5-4----2h4-2-------------5---5---5---|
D|--------------------------5-5--5---5--5h7-5h7-5---|
A|----------------------------5h7----5h7------------|
E|-3-3-----3--------3-------------------------------|

e|-------------------/7-3---------------------------|
B|----------------3--------3---3--3-3---3-----------|
G|-----5-5--5-----4--/7-4--2h4-2h4--4h5-4---------5-|
D|-5---5-5h75-5-5------------------------7-5--5---5-|
A|-5h7--------7-5-----------------------------5h7---|
E|----------------3-------3---------3---------------|

e|--------------------------------------------------|
B|----------------------3------3---3---3----3---3---|
G|-----5---5---5-----5--4------4---4h5-4----4h5-4---|
D|-5---5h7-5h7-5-5---5--5-------------------------5-|
A|-5h7-----------5h7--------------------------------|
E|----------------------3----3---3--------3---------|
                        Gravity_          is workin'

e|--------------------------------------------------|
B|--------------------------------3------3---3---3--|
G|------------5---5---5-----5-----4------2h4-2---2h4|
D|-5--5---5---5h7-5h7-5-5---5-5-5-5------------5----|
A|-5h7----5h7-----------5h7---7-5-------------------|
E|--------------------------------3----3------------|
   against me                 an' Gravity_

e|--------------------------------------------------|
B|--------------------------------------------------|
G|-5-4-2-------------5---5---5-----5-5---5----------|
D|-------5-5--5--5---5h7-5h7-5-5---5-5h7-5-5--------|
A|---------5h7---5h7-----------5h7---------5--------|
E|--------------------------------------------------|
   wants to bring me down_     O,  I 

   C6                           D7
e|----------5-------------5-------------------------|
B|---8---8---8-----8---8---8------7----7----7----7--|
G|----5---5---5-----5---5---5------5----5----5----5-|
D|-----5-------5-----5-------5------4---------4-----|
A|-----------------------------/5----5----5----5----|
E|-5-------------5----------------------------------|
  Never know     what this man, with  love, his   stand 
                   makes         all the     heart can

   Gm               Cm            D7
e|--------------------------------------------------|
B|-----8--10--------------8--8--------7----7----7---|
G|----7-7----7--7--------5-5--5--------5----5---5---|
D|---8---8----8--8------5---5--5--------4-----------|
A|-------------------/6---------6--/5----5---5--5---|
E|-6--------------6---------------------------------|
   I  of ways      to   it all   awa-hay_
    dream            throw


G Gsus4  C                    
Gravity, is working against me
G Gsus4  C
An' gravity, wants to bring me down


    C6                           
O- twice as much, ain't twice as good
 D7 
I can't sustain, like a half one could
Gm                 Cm                    D7
It's wanting more, it's gonna send me to my knees_


e|-----------------------------------x--------------|
B|-------------7---7-----------------5--x-----8-10--|
G|-------------7h9-7-------5---------5--x--/9-------|
D|-----------7-------9-7-5-5h7----5--5--x-----------|
A|-----5-7/9-------------------5/7---7--x-----------|
E|-3/7----------------------------------------------|

e|---------12\--------------------------------------|
B|------x--(0)-/12--10-3--3x-8---------------3------|
G|-/9~--x--12\---------4--4x-7---------------4------|
D|------x------/12--10-5--5x-9----5-5h7p5----5------|
A|---------------------------7-5/7-------7------(x)-|
E|---------------------3--3----------------3---7----|

e|--------------------------------------------------|
B|--------------------------------------------------|
G|-----------7-----------5-5------5-5--------5-5----|
D|-----------7-----------5-5h7----5-5h7------5-5h7--|
A|-5h7p5--7/9--9-7-5--5/7------5/7------5/-7--------|
E|------7-------------------------------------------|

e|-----------|
B|-----------|
G|-5h75-5----|
D|-5--5-5h7--|
A|---------7-|
E|-----------|


    C6                           
O- twice as much, ain't twice as good
 D7 
I can't sustain, like a half one could
Gm                 Cm                    D7
It's wanting more, it's gonna send me to my knees_

O- please, please, please

   G                                C
O- gravity, stay the hell away from me
   G                                     C
O- gravity, it has taken better men than me, now how can that be?
G                           C
Now keep me where the light is
G                            C
Just keep me where the light is
G                           C
Come on keep me where the light is, where the light is
comments
print report bad tab
2 comments total.
0 reply
davidpetrey wrote on May 24 2012, 03:35 pm

The tab sounds good but I think the chord names are maybe off.

C6 -> Am or Am7
Gm -> Gm/Bb
Cm -> Cm/Eb or possibly Ebmaj7

0 reply
Budep wrote on October 13 2012, 08:29 am

amazing tab

I want to post or [tab]
guest
You may want to rate the tab now too:
select rating
Please do not post tabs as comments. Select "correction" instead!