Oops, an error
Loading. Please wait.

Gravity Live Tab

version 2
version 2

Intro

3,895 views 3 this week
1 commentread comment
1 2 3 4 5
please rate
add to favorites
launch autoscroll
font size
0
reset
how to read this tab
guitar tuner
Autoscroll
slow
fast
+/-
esc
set tempo
stop
Help us to improve Ultimate-Guitar.com Take our survey!
×
Author
Difficulty
advanced
-------------------------------------------------------------------------------
                             Gravity (Live Intro) - John Mayer
-------------------------------------------------------------------------------
Tabbed by: Will Jones
Email: will.re.jones@gmail.com

Tuning: E Standard

NB - He plays a lot of notes in here which are hard to hear. Some of them I missed, some 
of them I've included. This piece requires very sensitive playing as I'm sure you hear. 
The sliding bits seem messy, apologies, it's hard to make them look clear!

e|-----------------------------------------------------------------------|
B|-----------------------------------------------------------------------|
G|--7/9~~-7/9\4\2/4\2p0h2h4/7/9/12\9/10\9\7-------7\5\4\2p0--------------|
D|---------------------------------------------7/9-----------------------|
A|-----------------------------------------------------------5/7\5/7\3---|
E|-----------------------------------------------------------------------|



e|-----------------------------------------------------------------------|
B|-----------------------------------------------------------------------|
G|--2\4\7--h2/4/7/9/12\9p7h9\4--2/4/7\4--0h2h4p2~~~---2p0-------------2--|
D|--------------------------------------------------------0h2p0----------|
A|--------------------------------------------------------------0h2h3----|
E|-----------------------------------------------------------------------|


                                       (not sure about this, it's very fast)
e|--8-\7-----8\-7-5p3-2h3----3---9h10--3-----3-----3----3-----3--3-------|
B|--10\8--0--10\8-3---3------1---10---/5-----5p3---3----3h5p3-3--3h5p3---|
G|-------------------------------------5---------5-4h5--------4----------|
D|-----------------------------------------------------------------------|
A|-------------------------3-------------3-------------------------------|
E|--------3--------------------------------------------------------------|



e|----3-----3------3---------3-----------------------8--7---------8-7----|
B|----3-5~~-3h5p3--3---------3-----------------------8--------0---8----0-|
G|--4--------------2h4-p2p0 h2h4p2-------------5/7/9----7-----------7----|
D|---------------------------------2p0h2---2/5---------------------------|
A|---------------------------------------3-------------------------------|
E|------------------------------------------------------------3--------3-|

e|--8-7--5--3---3--------------------------------------------------------|
B|--8----7--5---5--------------15----------------17----------------------|
G|----7---------------------16----16-(x2)-----17----17-------------------|
D|-----------------------17-----------------17--------17(x2-repeat to end|
A|--------------3------------------------15------------------------------|
E|--------------------15-------------------------------------------------|


************************************

| /   slide up
| \   slide down
| h   hammer-on
| p   pull-off
| ~   vibrato
| +   harmonic
| x   Mute note
| b   Bend
| pb  Pre-bend
| br  Bend release
| pbr Pre-bend release
| brb Bend release bend

************************************
Suggest correction
Give kudos to tab author, rate the tab!
1 2 3 4 5
comments
print report bad tab
1 comment total.
+1 reply
willyman101 74 wrote on March 14 2011, 06:29 pm

Just before the note in the third 'tab' down, the hammer on to the 10th fret from the 9th should be 7th to 8th. Likewise, the G (10th fret on the B string) should infact be an F, on the 8th fret of the B string...


e|-3---7h8---3----|
B|-1---8----/5----|
G|-----------5----|
D|----------------|
A|-------------3--|
E-----------------|

guest
You may want to rate the tab now too:
select rating
Wanna post a correction for this tab? Suggest correction