Oops, an error
Loading. Please wait.

Gravity Tab

version 2
version 2

Intro

Solo

Whole song

Interactive

Video

44,694 views 51 this week
2 commentsread comments
1 2 3 4 5
accurate
x 4
add to favorites
launch autoscroll
font size
0
reset
how to read this tab
guitar tuner
Tab Pro tools
  • play this tab
  • loop segment
  • change instrument
  • show fretboard
  • metronome
×
Best way to learn
"Gravity"
Autoscroll
slow
fast
+/-
esc
set tempo
stop
Contributor
Difficulty
intermediate
This is what I got.
My first tab...
Not completely accurate but it's pretty close...
Any corrections/comments.
Feel free to add in...

John Mayer Trio- ReAct Now Benefit
Tuning 1/2 Step: Eb Ab Db Gb Bb Eb
Tabbed by Win[12.28.84]

[Chords]
eb----------------5---------------|
Bb--3--5--3--5----8--7--8--6--7---|
Gb--4--5--4--5----5--5--7--7--5---|
Db--5--5--5--5----7--4--8--5--4---|
Ab-----7-----7-------5-----6--5---|
Eb--3-----3-----------------------|


Intro:                                        This chord isn't right
------------------------------------------------3----|
-------8-8--10b12r10b12--------5----5--5--------3----|
----/9-------------------------4h6--4--6--------3----|
------------------------------------------------3h4--|
------------------------------------------------3h5--|
------------------------------------------------x----|
------------------------------------------------3----|


----------------------------------------------------------------|
-------8-8--10b12r10b12r10--------------------------------------|
----/9----------------------------------------------------------|
----------------------------------------------------------------|
---------------------------------------------5--7---7/9/7v---7--|
------------------------------------0--/7-----------------------|
----------------------------------------------------------------|

                                               This chord isn't right
------------------------------------------------3----|
-------8-8--10b12r10b12--------5----5--5--------3----|
----/9-------------------------4h6--4--6--------3----|
------------------------------------------------3h4--|
------------------------------------------------3h5--|
------------------------------------------------x----|
------------------------------------------------3----|

--------------10------------------------------------------5-5---------------|
-------8-8--------10--88-------------------10-------------5-5-5-5-----5-----|
----/9--------------------------------9---------9---------5-5-5-5-----5-----|
----------------------------------------------------------5-5-5-5h7p5-5-----|
-------------------------------------------------------/7-7-7---------7-----|
----------------------------------------------------------5-5---------------|


Verse 1:

Gravity                  Is Working against me.
----------------------------------------------------------------------------|
--------3-----------------------------------5----------5/7/5--5-5--5-----5--|
--------4-----4-5-4-------------------------5-------5--5/7/5--5-5--5-----5--|
--------5--5--------------------------------5-----5----5/7/5--5-5--5h7p5-5--|
--------------------------------------------7---7------7/9/7--7----------7--|
--------3-------------------------------------------------------------------|

Gravity                  Wants to bring me down.
-----------------------------------------------5-----------5-7-5-----5------|
-----------3-----------------------------------5---------5-----------5------|
-----------4-----4-5-4-------------------------5-------5----------5---------|
-----------5--5--------------------------------5-----5----------------------|
-----------------------------------------------7---7------------------------|
-----------3----------------------------------------------------------------|

Ill Call this the Chorus:

   Ohh.. I'll never know              What makes this man
-----5---------------------5----------5-------------------------5-----------|
-----8-----------------------8--------8---------------------------8---------|
-----5-------5-----5---5--------5-----5--------5-------5----5-------5-------|
-----7---7------7---------------------7----7-------7------------------------|
----------------------------------------------------------------------------|
----------------------------------------------------------------------------|

       With all The love               That his heart can stand
----------------------------------------------------------------------------|
-----7---------------------7----------7-------------------------7-----------|
-----5-----------------------5--------5---------------------------5---------|
-----4-------4-----4---4-------4------4--------4--------4----4------4-------|
-----5---5------5---------------------5----5-------5------------------------|
----------------------------------------------------------------------------|


    Dream of ways            To Throw it all awaaayy
----------------------------------------------------------------------------|
-----8~---------8~---------------6----------7--------------7----------------|
-----7~------------7~------------5----------5-----------5-------------------|
-----8~---8~----------8~---------7----------4---------4---------------------|
---------------------------------6----------5------5------------------------|
----------------------------------------------------------------------------|


Verse 2:

       OOoohhhh        Gravity
----x-----x-----x-------------------------------------------|
----x-----x-----x--------------3----------------------------|
----x-----x-----x--------------4------4-5-4-----------------|
----x-----x-----x--------------5---5------------------------|
----x-----x-----x-------------------------------------------|
----x-----x-----x--------------3----------------------------|

Is working against me
----------------------------------------------------------|
--------------------------5--5--5/7/5/7-------------5-----|
--------------------------5--5--5/7/5/7---------------5---|
--------------------------5--7--7/9/7/9---5b6-----5-----5-|
----------------------/7--7--------------------7----------|
----------------------------------------------------------|

And Gravity
----------3--5-5-5/7-7-7-7p5-5-5-3------|
----------3--3-3-3/5-5-5-5---5-5-3------|
----------4--4-4-4/6-6-6-6---6-6-4------|
----------5--5-5-5/7-7-7-7---7-7-5------|
----------x------x/x--------------------|
----------3------3/5--------------------|


Wants to bring me down.
----------------------5-------------5-------------5---------5-------|
----------------------5-----------5---5---------5---5----------5----|
----------------------5---------5-------------5---------5-----------|
----------------------5-------5-------------5-----------------------|
----------------------5-----5-------------5-------------------------|
----------------------7---7-------------7---------------------------|
--------------------------------------------------------------------|


Chorus
   Ohh.. Twice as much                And twice as good
-----5---------------------5----------5-------------------------5-----------|
-----8-----------------------8--------8---------------------------8---------|
-----5-------5-----5---5--------5-----5--------5-------5----5-------5-------|
-----7---7------7---------------------7----7-------7------------------------|
----------------------------------------------------------------------------|
----------------------------------------------------------------------------|

       It can't sustain                like one half could
----------------------------------------------------------------------------|
-----7---------------------7----------7-------------------------7-----------|
-----5-----------------------5--------5---------------------------5---------|
-----4-------4-----4---4-------4------4--------4--------4----4------4-------|
-----5---5------5---------------------5----5-------5------------------------|
----------------------------------------------------------------------------|


    It's wanting more            That's gonna send me to my knees
----------------------------------------------------------------------------|
-----8~---------8~---------------6----------7--------------7----------------|
-----7~------------7~------------5----------5-----------5-------------------|
-----8~---8~----------8~---------7----------4---------4---------------------|
---------------------------------6----------5------5------------------------|
----------------------------------------------------------------------------|

Solo: (Here goes....)
--------------------------------------------------------------------|
----------13b15-------------------------15b17-----------------------|
---12/14--------14--12--14--------12-14--------14-12-12------14-----|
----------------------------------------------------------------14--|
--------------------------------------------------------------------|
--------------------------------------------------------------------|

---------------19--------------------17b---17b/---------------------|
---15----17---------15----15----17----------------------------------|
--------------------------------------------------------------------|
--------------------------------------------------------------------|
--------------------------------------------------------------------|
--------------------------------------------------------------------|

------------------19-----------------------17b----17b--------15----15-|
---15-----17------------15-----15-----17---------------------15h17-15-|
----------------------------------------------------------------------|
----------------------------------------------------------------------|
----------------------------------------------------------------------|
----------------------------------------------------------------------|

--------------------------------------------------------?------5-5-|
--15-15-15-15-15---------------------------------------?-------7-5-|
--14h16p14h16-14-----------------14h16p14-------------?------------|
------------------17-14----14--------------17----14-------?--------|
-------------------------------------------------------?-----------|
-------------------------------------------------------?-----------|

Chorus
   Ohh.. Twice as much                And twice as good
-----5---------------------5----------5-------------------------5-----------|
-----8-----------------------8--------8---------------------------8---------|
-----5-------5-----5---5--------5-----5--------5-------5----5-------5-------|
-----7---7------7---------------------7----7-------7------------------------|
----------------------------------------------------------------------------|
----------------------------------------------------------------------------|

       It can't sustain                like one half could
----------------------------------------------------------------------------|
-----7---------------------7----------7-------------------------7-----------|
-----5-----------------------5--------5---------------------------5---------|
-----4-------4-----4---4-------4------4--------4--------4----4------4-------|
-----5---5------5---------------------5----5-------5------------------------|
----------------------------------------------------------------------------|


    It's wanting more            That's gonna send me to my knees
----------------------------------------------------------------------------|
-----8~---------8~---------------6----------7--------------7----------------|
-----7~------------7~------------5----------5-----------5-------------------|
-----8~---8~----------8~---------7----------4---------4---------------------|
---------------------------------6----------5------5------------------------|
----------------------------------------------------------------------------|


VErse 3:
Gravity                  Stay the hell away from me.
----------------------------------------------------------------------------|
--------3-----------------------------------5---5---------5/7/5-5-5----5----|
--------4-----4-5-4-------------------------5---5---------5/7/5-5-5---5--5--|
--------5--5--------------------------------5---5----5--7-7/9/7-5-5--5----5-|
------------------------------------------=-7---7--7--------------7-7-------|
--------3-------------------------------------------------------------------|


And Gravity
----------3--5-5-5/7-7-7-7p5-5-5-3------|
----------3--3-3-3/5-5-5-5---5-5-3------|
----------4--4-4-4/6-6-6-6---6-6-4------|
----------5--5-5-5/7-7-7-7---7-7-5------|
----------x------x/x--------------------|
----------3------3/5--------------------|


has taken better men than me (Now how can that be?)

----------------------5---|
----------------------5---|
----------------------5---|
----------------------5---|
----------------------7---|
--------------------------|


Just keep me where the light is
-----------------------------------------------|
-----------3-----------------------------------|
-----------4-----4-5-4----4--5---4-----4--5--4-|
-----------5--5--------------------------------|
-----------------------------------------------|
-----------3-----------------------------------|

Just keep me where the light is
-----------------------------------------------|
-----------------------------------------------|Don't know this one
-----------------------------------------------|
-----------------------------------------------|
-----------------------------------------------|
-----------------------------------------------|


Just keep me where the light is
----------3--5-3-5-3-5-3-5-3--so on...-------|
----------3--3-3-3-3-3-3-3-3-----------------|
----------4--4-4-4-4-4-4-4-4-----------------|
----------5--5-5-5-5-5-5-5-5-----------------|
----------x----------------------------------|
----------3----------------------------------|

Come on, keep me where the light is
-----------------------------------------------|
-----------------------------------------------|Don't know this one
-----------------------------------------------|
-----------------------------------------------|
-----------------------------------------------|
-----------------------------------------------|

Come on, keep me where the light is
--------------------------------------------------------14-|
---------------------------------3------------8v--------14-|
---------------------------------4--------/9---------------|
---------------------------------5-------------------------|
-----------------------------------------------------------|
---------------------------------3-------------------------|

Keep me where    Keep me keep me keep me keep us where all the the light is
----------------------------------------------------------------------------|
---3------------------------3-----------------------------------------------|
---4------------------------4-----------------------------------------------|
---5------------------------5-----------------------------------------------|
----------------------------------------------------------------------------|
---3------------------------3-----------------------------------------------|

--------------10-----------------------------14/------------|
-------8--10------8v--8v---10----------------14/------------|
---/9-------------------------------------------------------|
------------------------------------------------------------|
------------------------------------------------------------|
------------------------------------------------------------|

...Something Something
...something...
....
...
.


www.JohnMayerTrio.com
comments
print report bad tab
2 comments total.
+1 reply
JJK wrote on July 1 2009, 02:44 am

The intro should go like this:

e-----3---3-3-----------------
b-----3h5-3-3h5-3-------------
g---------------2h4-----------
d-----------------------------
a-----------------------------
E-----------------------------

0 reply
Your Right wrote on July 21 2009, 08:19 pm

wrong chords...

I want to post or [tab]
guest
You may want to rate the tab now too:
select rating
Please do not post tabs as comments. Select "correction" instead!