Oops, an error
Loading. Please wait.

Gravity Tab

version 4
version 4

Whole song

Interactive

Video

134,336 views 411 this week
6 commentsread comments
1 2 3 4 5
x 32
add to favorites
launch autoscroll
font size
0
reset
how to read this tab
guitar tuner
Autoscroll
slow
fast
+/-
esc
set tempo
stop
Help us to improve Ultimate-Guitar.com Take our survey!
×
Author
Difficulty
intermediate
-----------------------------------------------------------------------------

                             GRAVITY - John Mayer
-----------------------------------------------------------------------------

Tabbed by: Moxman
Email: dj.moxley@gmail.com

Tuning: Standard


[Intro:]

e|---------------------------------------------------------------------------|
B|-----8-8-10b12~----8-8-10b12-10-10~----------------------------------------|
G|-7\9------------7\9--------------------------------------------------------|
D|---------------------------------------------------------------------------|
A|---------------------------------------------------------------------------|
E|---------------------------------------------------------------------------|


e|---------------------------------------------------------------------------|
B|-----8-8-10b12~----8-8-10b12-10-10---10---8--------------------------------|
G|-7\9------------7\9----------------9----9----------------------------------|
D|---------------------------------------------------------------------------|
A|---------------------------------------------------------------------------|
E|---------------------------------------------------------------------------|


[Verse:]
   G                                                 C
e|-x-------------------------------------------------5-----------------------|
B|-3-------------------------------------------------5-----------------------|
G|-4-------------------------------------------------5-----------------------|X2
D|-5-------------------------------------------------5-----------------------|
A|-x-------------------------------------------------7-----------------------|
E|-3-------------------------------------------------x-----------------------|
   "Gravity"                                        "against me"
   "Gravity"                                        "wants to bring me"

   Am7                                      D7    
e|---------------------------------------------------------------------------|
B|----8---7---5---------------------------7-------7--------------------------|
G|---5-5---5---5-------------------------5-5-----5-5-------------------------|
D|--5---5---5---5-----------------------4---4---4---4------------------------|
A|-7-----------------------------------5-----5-5-----5-----------------------|
E|---------------------------------------------------------------------------|
   "I'l never know"                   "with all the love"
  
   Bmaj6               Ebmaj7         D7
e|----3----------------------------------------------------------------------|
B|---3-3------------------3------------7----------7--------------------------|
G|--3---3----------------3-3----------5-5---------5--------------------------|
D|----------------------5---5--------4---4--------4--------------------------|
A|---------------------6------------5-----5-------5--------------------------|
E|-6-------------------------------------------------------------------------|
  "Dream of ways"     "to throw it all"


[Verse 2:]
   G                                                 C
e|-x-------------------------------------------------5-----------------------|
B|-3-------------------------------------------------5-----------------------|
G|-4-------------------------------------------------5-----------------------|X2
D|-5-------------------------------------------------5-----------------------|
A|-x-------------------------------------------------7-----------------------|
E|-3-------------------------------------------------x-----------------------|
   "Gravity"                                        "against me"
   "Gravity"                                        "wants to bring me"


   Am7                                      D7    
e|---------------------------------------------------------------------------|
B|----8---7---5---------------------------7-------7--------------------------|
G|---5-5---5---5-------------------------5-5-----5-5-------------------------|
D|--5---5---5---5-----------------------4---4---4---4------------------------|
A|-7-----------------------------------5-----5-5-----5-----------------------|
E|---------------------------------------------------------------------------|
   "Twice as much"                   "and can't sustain"
  
   Bmaj6               Ebmaj7         D7
e|----3----------------------------------------------------------------------|
B|---3-3------------------3------------7----------7--------------------------|
G|--3---3----------------3-3----------5-5---------5--------------------------|
D|----------------------5---5--------4---4--------4--------------------------|
A|---------------------6------------5-----5-------5--------------------------|
E|-6-------------------------------------------------------------------------|
  "It's one and"     "it's gonna send me to"


[Verse 3:]
   G                                                 C
e|-x-------------------------------------------------5-----------------------|
B|-3-------------------------------------------------5-----------------------|
G|-4-------------------------------------------------5-----------------------|X2
D|-5-------------------------------------------------5-----------------------|
A|-x-------------------------------------------------7-----------------------|
E|-3-------------------------------------------------x-----------------------|
   "Gravity"                                        "stay the hell"
   "Gravity"                                        "has taken better"


   G                                                 C
e|-x-------------------------------------------------5-----------------------|
B|-3-------------------------------------------------5-----------------------|
G|-4-------------------------------------------------5-----------------------|
D|-5-------------------------------------------------5-----------------------|
A|-x-------------------------------------------------7-----------------------|
E|-3-------------------------------------------------x-----------------------|
   "Just keep me"                                    where the light is"
   "Just keep me"                                    where the light is"



************************************

| \   slide down
| ~   vibrato
| x   Mute note
| b   Bend

************************************
Suggest correction
comments
print report bad tab
6 comments total. Showing first comments.
0 reply
fishin254 10 Apr 18, 2010 02:54 AM

This is great! Nice work :)

0 reply
harry1994 237 Oct 07, 2010 02:04 PM

where's the solo!?!? great anyway!

0 reply
6stringlover 10 Feb 11, 2013 05:12 AM

http://tabs.ultimate-guitar.com/j/john_mayer/gravity_solo_tab.htm for anyone who wants the solo check this out

guest
You may want to rate the tab now too:
select rating
Wanna post a correction for this tab? Suggest correction