Oops, an error
Loading. Please wait.

Half Of My Heart Acoustic Tab

48,631 views 78 this week
5 commentsread comments
1 2 3 4 5
excellent!
x 9
add to favorites
launch autoscroll
font size
0
reset
how to read this tab
guitar tuner
Tab Pro tools
  • play this tab
  • loop segment
  • change instrument
  • show fretboard
  • metronome
Autoscroll
slow
fast
+/-
esc
set tempo
stop
Contributor
-----------------------------------------------------------------------------
                 Half of my Heart(Acoustic) - John Mayer
-----------------------------------------------------------------------------
Tabbed by: tearhere619
Email: jv061891@gmail.com

Tuning: Standard

Hey everybody... if you have not heard this acoustic version of this song, here's a 
clip of this song...

http://www.youtube.com/watch?v=hKax2jXHUfw

This is the guitar part that John plays, i just don't know how the second guitar goes 
i don't know who played it so here goes...

I hope UG accepts this tab...2 of my contributions got denied... got my fingers crossed...:D

Intro:

                      I                                      II
e|---------------------------------------------|----------------------------|
B|--------(1)-(1)-(1)----1-1-----1----1-1-1----|-----1-1-1----1-1-----1-----|
G|---------3---2---0-----0-2-----0----0-2-0----|-----3-2-0----0-2-----0-----|
D|---------3---3---3---------3-2----3------3---|-----3-3-3--------3-2-------|
A|------0--------------------------------------|----------------------------|
E|---3-----------------1-----------------------|------------1---------------|
         III
e|-----------------|-------------|----------1--------------1---|
B|------1---1------|-------------|-------1-----1-------1-------|
G|------0---0------|-(Repeat I)--|-----3---------3------3------|
D|--2h3---3---3----|-------------|---3----3---3-3----3---3-----|
A|-----------------|-------------|-----------------------------|
E|-----------------|-------------|-----------------------------|

Verse:
I was born in the arms of imaginary friends...
      Bb9/F       F        C          Dm7
e|-------------------------------|----------|
B|-----1----------1--------1-----|-----6----|
G|-----3----------2--------------|-----5----| Repeat progression w/o Dm7 and
D|-----3----------3--------2-----|-----7----|  end with III (seen above)
A|-----x----------x--------3-----|-----5----|
E|-----1----------1--------------|----------|

Then you come crashing in, like the realest thing....
(Same chords as verse, but without ending III)

Chorus:
(Same chords)[ Bb9 F C Dm7 ]
Oh half of my heart's got a grip on the situation...

Interlude:
Oh, with half of my heart...
     F    C   Dm7    Bb
e|-----------------------|
B|---1----5----5h6---3---|
G|---2----5----5-----3---| (2x)
D|---3----5----5h7---3---|
A|--------3----5-----1---|
E|---1-------------------|

Bridge:
     F          Am
Your faith is strong
          C#m7                   Bb
But I can only fall short for so long
         F         Am
Time will hold, later on
          C#m7                      Bb
You will hate that I never gave more to you than
half of my heart
         B6                      Em(b9)
e|-------------------------|-------------------------|
B|-------------------------|-------------------------|
G|-------0------0----------|-------0-----0-----------| Repeat whole till
D|-----3------3-----3--(2x)|-----3-----3-----3---(2x)|              chorus
A|--1------1------1--------|-------------------------|
E|-------------------------|---0-----0-----0---------|
But I can't stop loving you...

(Chorus)
[ Bb9 F C Dm7 ]

End with chords Bb9 F C with 1 strum per chord...

Thanks for viewing this tab! Please rate!

************************************

| /   slide up
| \   slide down
| h   hammer-on
| p   pull-off
| ~   vibrato
| +   harmonic
| x   Mute note
| b   Bend
| pb  Pre-bend
| br  Bend release
| pbr Pre-bend release
| brb Bend release bend

************************************
comments
print report bad tab
5 comments total. Showing first comments.
+1 reply
demonsage wrote on February 1 2011, 05:23 pm

at first i thought this tab was off but then i realized i suck :P so i kicked the tempo up and it sounds great

0 reply
demonsage wrote on February 2 2011, 06:32 pm

this is kinda personal thing but i find this sounds a bit better at times

e|---------------------------------------------|----------------------------|
B|--------(1)-(1)-(1)----1-1-1-1-1--1-1-1-1----|-----1-1-1----1-1-----1-----|
G|---------3---2---0-----0-2-0-0-0--0-0-2-0----|-----3-2-0----0-2-----0-----|
D|---------3---3---3---------3-2----3------3---|-----3-3-3--------3-2-------|
A|------0--------------------------------------|----------------------------|
E|---3-----------------1-----------------------|------------1---------------|

0 reply
tearhere619 wrote on February 26 2011, 02:03 am

Hey thanks for correcting and commenting. :D

I want to post or [tab]
guest
You may want to rate the tab now too:
select rating
Please do not post tabs as comments. Select "correction" instead!