Oops, an error
Loading. Please wait.

Half Of My Heart Tab

version 3
version 3

Whole song

Interactive

65,737 views 93 this week
no commentswrite comment
1 2 3 4 5
excellent!
x 11
add to favorites
launch autoscroll
font size
0
reset
how to read this tab
guitar tuner
Tab Pro tools
  • play this tab
  • loop segment
  • change instrument
  • show fretboard
  • metronome
×
Best way to learn
"Half Of My Heart"
Autoscroll
slow
fast
+/-
esc
set tempo
stop
Contributor
Rhythm Guitar
(the amount of strokes is not shown but it's easy to tell in
the song when to switch)
Intro/Verses/PostChorus
e-1-1-1-1-1-1-1-1-(3)(3)(3)(3)---------|
b-1-1-1-1-1-1-1-1--5--5--5--5--6-6-6-6-|
g-3-3-3-3-2-2-2-2--5--5--5--5--7-7-7-7-|
d-3-3-3-3-3-3-3-3--5--5--5--5--7-7-7-7-|
a-1-1-1-1-3-3-3-3--3--3--3--3--5-5-5-5-|
e---------1-1-1-1----------------------|

e-1-1-1-1-1-1-1-1-(3)(3)(3)(3)(3)(3)(3)(3)-|
b-1-1-1-1-1-1-1-1--5--5--5--5--5--5--5--5--|
g-3-3-3-3-2-2-2-2--5--5--5--5--5--5--5--5--|
d-3-3-3-3-3-3-3-3--5--5--5--5--5--5--5--5--|
a-1-1-1-1-3-3-3-3--3--3--3--3--3--3--3--3--|
e---------1-1-1-1--------------------------|


Prechorus
e-1-1-1-1-1-1-1-1-1-1-1-1-1-1-1-1-|
b-1-1-1-1-1-1-1-1-1-1-1-1-1-1-1-1-|
g-3-3-3-3-3-3-3-3-2-2-2-2-2-2-2-2-|
d-3-3-3-3-3-3-3-3-3-3-3-3-3-3-3-3-|
a-1-1-1-1-1-1-1-1-3-3-3-3-3-3-3-3-|
e-----------------1-1-1-1-1-1-1-1-|

e-(3)(3)(3)(3)(3)(3)(3)(3)-----------------|
b--5--5--5--5--5--5--5--5--6-6-6-6-6-6-6-6-|
g--5--5--5--5--5--5--5--5--7-7-7-7-7-7-7-7-|
d--5--5--5--5--5--5--5--5--7-7-7-7-7-7-7-7-|
a--3--3--3--3--3--3--3--3--5-5-5-5-5-5-5-5-|
e------------------------------------------|

e-1-1-1-1-1-1-1-1-1-1-1-1-1-1-1-1-|
b-1-1-1-1-1-1-1-1-1-1-1-1-1-1-1-1-|
g-3-3-3-3-3-3-3-3-2-2-2-2-2-2-2-2-|
d-3-3-3-3-3-3-3-3-3-3-3-3-3-3-3-3-|
a-1-1-1-1-1-1-1-1-3-3-3-3-3-3-3-3-|
e-----------------1-1-1-1-1-1-1-1-|

e-(3)(3)(3)(3)(3)(3)(3)(3)(3)(3)(3)(3)-
b--5--5--5--5--5--5--5--5--5--5--5--5--|
g--5--5--5--5--5--5--5--5--5--5--5--5--|
d--5--5--5--5--5--5--5--5--5--5--5--5--|
a--3--3--3--3--3--3--3--3--3--3--3--3--|
e--------------------------------------|

Chorus
e-1-1-1-1-1-1-1-1-(3)(3)(3)(3)---------|
b-1-1-1-1-1-1-1-1--5--5--5--5--6-6-6-6-|
g-3-3-3-3-2-2-2-2--5--5--5--5--7-7-7-7-|
d-3-3-3-3-3-3-3-3--5--5--5--5--7-7-7-7-|
a-1-1-1-1-3-3-3-3--3--3--3--3--5-5-5-5-|
e---------1-1-1-1----------------------|

e-1-1-1-1-1-1-1-1-(3)(3)(3)(3)(3)(3)(3)(3)-|
b-1-1-1-1-1-1-1-1--5--5--5--5--5--5--5--5--|
g-3-3-3-3-2-2-2-2--5--5--5--5--5--5--5--5--|
d-3-3-3-3-3-3-3-3--5--5--5--5--5--5--5--5--|
a-1-1-1-1-3-3-3-3--3--3--3--3--3--3--3--3--|
e---------1-1-1-1--------------------------|

e-1-1-1-1-1-1-1-1-(3)(3)(3)(3)---------1-1-1-1-1-1-1-1-|
b-1-1-1-1-1-1-1-1--5--5--5--5--6-6-6-6-1-1-1-1-1-1-1-1-|
g-3-3-3-3-2-2-2-2--5--5--5--5--7-7-7-7-3-3-3-3-3-3-3-3-|
d-3-3-3-3-3-3-3-3--5--5--5--5--7-7-7-7-3-3-3-3-3-3-3-3-|
a-1-1-1-1-3-3-3-3--3--3--3--3--5-5-5-5-1-1-1-1-1-1-1-1-|
e---------1-1-1-1--------------------------------------|


Bridge

e-1-1-1-1-1-1-1-1-----------------|
b-1-1-1-1-1-1-1-1-----------------|
g-2-2-2-2-2-2-2-2-5-5-5-5-5-5-5-5-|
d-3-3-3-3-3-3-3-3-7-7-7-7-7-7-7-7-|
a-3-3-3-3-3-3-3-3-7-7-7-7-7-7-7-7-|
e-1-1-1-1-1-1-1-1-5-5-5-5-5-5-5-5-|
                                     2x
e-3-3-3-3-3-3-3-3-3-3-3-3-3-3-3-3-|
b-4-4-4-4-4-4-4-4-3-3-3-3-3-3-3-3-|
g-3-3-3-3-3-3-3-3-3-3-3-3-3-3-3-3-|
d-5-5-5-5-5-5-5-5-5-5-5-5-5-5-5-5-|
a-3-3-3-3-3-3-3-3-5-5-5-5-5-5-5-5-|
e-----------------3-3-3-3-3-3-3-3-|

e-1-1-1-1-1-1-1-1-1-1-1-1-(3)(3)(3)(3)(3)(3)(3)(3)(3)(3)(3)(3)-|
b-1-1-1-1-1-1-1-1-1-1-1-1--5--5--5--5--5--5--5--5--5--5--5--5--|
g-3-3-3-3-3-3-3-3-3-3-3-3--5--5--5--5--5--5--5--5--5--5--5--5--| 2x
d-3-3-3-3-3-3-3-3-3-3-3-3--5--5--5--5--5--5--5--5--5--5--5--5--|
a-1-1-1-1-1-1-1-1-1-1-1-1--3--3--3--3--3--3--3--3--3--3--3--3--|
e--------------------------------------------------------------|

Then play chorus until end

Lead Guitar
Intro
e------------------------------------------------------------|
b---------13----------13------13-----------------------------|
g------------14--12~-----14~-----14--12/14/12/10-------------|
d------------------------------------------------12~--10/12~-|
a---0-1------------------------------------------------------|
e-3----------------------------------------------------------|

First Post Chorus
e------------------------------------|
b-13----------8/13-------------------|
g----14--12~-------14--12//14--------|
d-----------------------------12/15~-|
a------------------------------------|
e------------------------------------|

Second Post Chorus/Prebridge
e----------------------|
b-14b--13~---12/7/10~--|
g----------------------|
d----------------------|
a----------------------|
e----------------------|

Outro
e-----------------------------------------------------------|
b-13-----------13--------14brbr-13~----14brbr-11p13---------|
g----14--12~------14~-------------------------------14p12~--|
d-----------------------------------------------------------|
a-----------------------------------------------------------|
e-----------------------------------------------------------|

e----------------------------------16b-13~--|
b----------------13~---13/17-18~------------|
g-12/14~---12/14----------------------------|
d-------------------------------------------|
a-------------------------------------------|
e-------------------------------------------|
comments
print report bad tab
I want to post or [tab]
guest
You may want to rate the tab now too:
select rating
Please do not post tabs as comments. Select "correction" instead!