Oops, an error
Loading. Please wait.

Heart Of Life Tab

version 1
version 1

Interactive

96,503 views 18 this week
16 commentsread comments
1 2 3 4 5
accurate
x 12
add to favorites
launch autoscroll
font size
0
reset
how to read this tab
guitar tuner
Autoscroll
slow
fast
+/-
esc
set tempo
stop
Help us to improve Ultimate-Guitar.com Take our survey!
×
Author
Difficulty
intermediate
HEART OF LIFE by John Mayer
tabbed by Saso Sandic
(Hotel Cafe performance)


eb---------------------------------------------------------|
bb---10----10-----10---12---7---7---7---10--2--2~~~3--3----|
gb---11------11---11-----11-7----7--7-----7-2---2~~4---4---|
db---12-12-----12-12-12-----9-9---9-9-9-----4-4--4~5-5--5--|
ab---x------------x---------x-------x-------x------x-------|
Eb---10-----------10--------7-------7-------2~~~~~~3-------|

eb---------------------------|------------------9-10-------|
bb---3--3---3~5--5---5---5~~~|10---10-----10-12------------|
gb---2---2~~~~6---6---6---6~~|11-----11---11---------------|
db---0-2--0---7-7--7---7---7~|12-12----12-12---------------|
ab---x--------x--------------|x-----------x----------------|
Eb---2~~~~~~~~5--5---5---5---|10----------10---------------|


eb--------------7------------------------------------------|
bb---7--7-----7---10-2--2~~~3--3---3--3---5---5---5---5----|
gb---7---7--9--------2---2~~4---4--2---2--6----6---6---6---|
db---9-9--9----------4-4--4~5-5--5-0-0--0-7-7---7---7---7--|
ab---x---------------x------x------x------x----------------|
Eb---7---------------2~~~~~~3------2------5---5---5---5----|

up to | its an intro and after | is a verse, repeated over and over again.
Suggest correction
comments
print report bad tab
16 comments total. Showing first comments.
0 reply
gatlin121 10 wrote on June 26 2009, 10:50 pm

non accurate

0 reply
Sash0 104 wrote on June 26 2009, 11:01 pm

if you play these tabs using tapping & down-finger picking it's correct.. the only thing that isn't really dead on are tha bass notes (there should be more) - but this tab is just the basic idea

0 reply
Makiavelli 10 wrote on June 27 2009, 03:13 am

great tab!

guest
You may want to rate the tab now too:
select rating
Wanna post a correction for this tab? Suggest correction