Oops, an error
Loading. Please wait.

Heart Of Life Tab

version 3
version 3

Interactive

494,014 views 492 this week
24 commentsread comments
1 2 3 4 5
x 63
add to favorites
launch autoscroll
font size
0
reset
how to read this tab
guitar tuner
×
Best way to learn
"Heart Of Life"
Autoscroll
slow
fast
+/-
esc
set tempo
stop
The Heart of Life - John Mayer

Tabbed by Robin Roy - err7126@umoncton.ca


Writer's Comments
¯¯¯¯¯¯¯¯¯¯¯¯¯¯¯¯¯
   The technique is a simple idea, but may require a lot of practice. 
If you listen carefully to the song, John plays a note at the same time 
as the slapping sound. This is achieved by flicking the smaller string 
down with your index finger nail as you slap the E string with your thumb. 
I've marked the slaps with an 'x' and the "flicks" with a 'd' (for down).  
I hope you enjoy my version of the tabs. Obviously, any comments or 
questions are appreciated. This is a very fun song to play :)

Tunning
¯¯¯¯¯¯¯
John plays it tuned half a step down (Eb Ab Db Gb Bb Eb), in which case 
the name of the chords are only based on their position and not their 
actual note. You can also play it half a step down on the neck and it 
would sound the same since there are actually no open notes played in 
the song. Or just play it half a step high than John and avoid 
the hassle :P

Chords
¯¯¯¯¯¯
e|---x----x----x----x----x----x--|
B|--10----7----2----3----3----5--|
G|--11----7----2----4----2----6--|
D|--12----8----3----5----0----7--|
A|---x----x----x----x----x----x--|
E|--10----7----2----3----2----5--| <-- E string always with the thumb
    Dm   Bm   F#m   G   D/F#  A

x = Slap with your thumb
u = pluck the string up with your index
d = flick the string down wirth your index (the nail)



[Intro]
 
     u   d u   d   u   d   u   d      u   d u   d   u   d   u   d
e|--------------------------------|--------------------------------|
B|--10----10------10------12------|---7-----7-------7------10------|
G|------11----11------11------11--|-------7-----7-------7-------7--|
D|--------------------------------|--------------------------------|
A|--------------------------------|--------------------------------|
E|--10--10----10--10--10--10--10--|---7---7-----7---7---7---7---7--|
         x     x       x       x          x     x       x       x
    Dm                                Bm


     u   d u   d   u   d u   d        u   d u   d   u   d u d u d u
e|--------------------------------|----------------------------------|
B|---2-----2-------3-----3--------|---3-----3-------5-----5---5---5--|
G|-------2-----2-------4-----4----|-------2-----2-------6---6---6----|
D|--------------------------------|----------------------------------|
A|--------------------------------|----------------------------------|
E|---2---2-----2---3---3-----3----|---2---2-----2---5---5---5---5----|
         x     x       x     x            x     x       x   x   x
     F#m           G                  D/F#          A

 
[Verse]
 
     u   d u   d   u   d   u   d      u   d u   d   u   d   u   d
e|-------------------------9--10--|-------------------------9---7--|
B|--10----10------10--12----------|---7-----7-------7---10---------|
G|------11----11------------------|-------7-----7------------------|
D|--------------------------------|--------------------------------|
A|--------------------------------|--------------------------------|
E|--10--10----10--10--10--10--10--|---7---7-----7---7---7---7---7--|
         x     x       x       x          x     x       x       x
    Dm                                Bm


     u   d u   d   u   d u   d        u   d u   d   u   d u d u d u
e|--------------------------------|----------------------------------|
B|---2-----2-------3-----3--------|---3-----3-------5-----5---5---5--|
G|-------2-----2-------4-----4----|-------2-----2-------6---6---6----|
D|--------------------------------|----------------------------------|
A|--------------------------------|----------------------------------|
E|---2---2-----2---3---3-----3----|---2---2-----2---5---5---5---5----|
         x     x       x     x            x     x       x   x   x
     F#m           G                  D/F#          A
 

[Chorus]
 
    u       u   d    u   d   u   d     u  du  u  du  u  du  u  du
e|----------------------------------|------------------------------|
B|--------------5-------------------|--3---3--3---3--3---3--3---3--|
G|--6-------7-------11-------9------|-----4------4------4------4---|
D|------------------------------12--|------------------------------| X3
A|----------------------------------|------------------------------|
E|--5---5---5---5---10--10--10--10--|--3--3---3--3---3--3---3--3---|
        x       x        x       x        x      x      x      x
    A               Dm                 G


[4th time]

    u       u   d    u       u   d     u  du  u  du  u  du  u  du
e|----------------------------------|------------------------------|
B|--------------5-------------------|--3---3--3---3--3---3--3---3--|
G|--6-------7-------11-------9------|-----4------2------4------2---|
D|------------------------------12--|------------------------------|
A|----------------------------------|------------------------------|
E|--5---5---5---5---10--10--10--10--|--3--3---2--2---3--3---2--2---|
        x       x        x       x        x      x      x      x
    A               Dm                 G      D/F#   G      D/F#


    u  du  u  du  u  du  u  du      u   d u   d   d  ~~~~~~~
e|------------------------------|-----------------------------|
B|--5---5--5---5--5---5--5---5--|--10----10--10-----------10--|
G|-----6------6------6------6---|------11--------11------11---|
D|------------------------------|-----------------------12----|
A|------------------------------|----------------------x------|
E|--5--5---5--5---5--5---5--5---|--10--10----10--10--10-------|
       x      x      x      x           x         x  
Suggest correction
comments
print report bad tab
24 comments total. Showing first comments.
+1 reply
julio1987 20 Jul 01, 2009 07:00 AM

Very good tab... this one's much easier to begin with than Stop this train, so get this one down before trying that one. hehehe
http://youtube.com/watch?v=L_AXlHOXhCc&mode=related&search=

-1 reply
alex.allegro 82 Jul 02, 2009 01:00 PM

it´s wrong...check on youtube his lige acoustic version of this song.....it´s similar but at some places it´s completely wrong...it´s not the way he plays it

-1 reply
Huskerfan86 20 Jul 05, 2009 10:38 PM

i think the chorus is more like this and its easier. he uses his thumb for the e and then switches to index on the a.

e|---------------------------|------------------------------|
B|-----------------7----5----|--3---3--3---3--3---3--3---3--|
G|--6-------7-------------- -|-----4------4------4------4---|
D|---------------------------|------------------------------| X3
A|-----------------5----5----|------------------------------|
E|--5---5---5----------------|--3--3---3--3---3--3---3--3---|
x x x

guest
You may want to rate the tab now too:
select rating
Wanna post a correction for this tab? Suggest correction