Oops, an error
Loading. Please wait.

Heart Of Life Tab

version 4
version 4

Interactive

23,043 views 3 this week
8 commentsread comments
1 2 3 4 5
x 16
add to favorites
launch autoscroll
font size
0
reset
how to read this tab
guitar tuner
Autoscroll
slow
fast
+/-
esc
set tempo
stop
Help us to improve Ultimate-Guitar.com Take our survey!
×
Difficulty
intermediate
Artist: John Mayer
Album: Continuum
Song: Heart of Life

this song is amazing and all the tabs on here didnt even come close, this is actually 
john plays, trust me...

Tuning is normal...
make your guitar have as much bass as possible, this is a very smooth song, finger pick 
no picks whatsoever, not even the lead parts...


Intro/Verse:

E------------------------------------------------------------------|
B-9-----9-------9-----11--6----6-----6---9--1----1-1----2----2-2---|
G----10---10-------10--------6---6-----6---------------------------|
D-11---------11-11----11--8--------8-8---8--3--3-----3--4--4-----4-|
A------------------------------------------------------------------|
E------------------------------------------------------------------|

E------------------------------------------------------------------|
B-----------------4------------------------------------------------|
G-6---6-6----5-----5-----------------------------------------------|
D-6-6-----6--6--6---6----------------------------------------------|
A------------------------------------------------------------------|
E------------------------------------------------------------------|

Lead for Verse:
E-----6-8/9---------6/4--------------------------------------------|
B-9~9-------6—-4-6---------7-6-4/2-1-------------------------------|
G------------------------5-----------------------------------------|
D------------------------------------------------------------------|
A------------------------------------------------------------------|
E------------------------------------------------------------------|

Chorus:(Pick out the same rhythym as verse)

E------------------------------------------------------------------|
B---4-2---4-2---4-2-2---4------------------------------------------|
G-5-6-3-5-6-3-5-6-3-3-5-6------------------------------------------|
D-6-6-4-6-6-4-6-6-4-4-6-6------------------------------------------|
A------------------------------------------------------------------|
E------------------------------------------------------------------|

Lead for Chorus
E----6/8-9~------6/8-11-9~------6/8-9~6/8---6/8-9~6/8--------------|
B-9~----------9~-------------9~-----------9~----------9~/6-4~------|
G-------------------------------------------------------------6~---|
D------------------------------------------------------------------|
A------------------------------------------------------------------|
E------------------------------------------------------------------|

solo part is the verse part with a little diddy over it, improvise for that...and the 
is pretty self-explanatory...yeah so thats a rad song...thanks for checkin out the tab
Suggest correction
comments
print report bad tab
8 comments total. Showing first comments.
+1 reply
punk-man12 31 Jul 03, 2009 06:20 AM

Perfect man.

0 reply
ducdeeze 31 Jul 06, 2009 02:54 AM

Not how he plays it. Watch some video of him playing it on youtube.com, and you will see he has a slap/flick technique. One of the other versions had it right, though maybe not exact. This would be a decent EASY version for electric guitars.

+1 reply
Nickleback1192 10 Jul 06, 2009 04:45 PM

This is how you play it good job man I've seen him play it live and this is how its played

guest
You may want to rate the tab now too:
select rating
Wanna post a correction for this tab? Suggest correction