Oops, an error
Loading. Please wait.

Heart Of Life Tab

version 6
version 6

Interactive

9,300 views 18 this week
no commentswrite comment
1 2 3 4 5
2 more votes to show rating
add to favorites
launch autoscroll
font size
0
reset
how to read this tab
guitar tuner
Autoscroll
slow
fast
+/-
esc
set tempo
stop
Help us to improve Ultimate-Guitar.com Take our survey!
×
Author
Hey there folks,

This is an excerpt from the Heart Of Life On Mulholland video (
), which was played as the ending credits for John Mayer's 'Where the Light Is' DVD. 
always been helplessly
love with the tune of 'Heart of Life', and I feel like I should share part of it with 
guys as well.

In video, this part starts at 0:25 and ends around 1:10. I'm still working on tabbing
the latter half of the 'performance', so sit tight for that.

I'm leaving out how to play the rhythm and the normal melody, since there are plenty of
out there with the how-to on that.

Check out the video for correct timing, and possibly little slip-ups I've made in the tabulation.

e|----------------------------------------9----------------------------------|
B|--------9--9h11~~-----------------9-11---11p9--------9~--------------------|
G|---/10--------------10\8-----8/10-------------10\8--------10---8~~---------|
D|---------------------------------------------------------------------------|
A|---------------------------------------------------------------------------|
E|---------------------------------------------------------------------------|

e|-------------------------------------------------------8-8h9---------------|
B|-----7h9p7---9h11-13-14~~-----13p11--9\--9~~----9-9h11--------6~~----------|
G|--6h8----------------------------------------------------------------------|
D|---------------------------------------------------------------------------|
A|---------------------------------------------------------------------------|
E|---------------------------------------------------------------------------|

e|-------6-------------------------------------------------------------------|
B|-----6-----9-----------6-6~---9b11---9--9~~---14h16-16~~-------------------|
G|--6h8----------5~--6h8-----------------------------------------------------|
D|---------------------------------------------------------------------------|
A|---------------------------------------------------------------------------|
E|---------------------------------------------------------------------------|

e|---------------------------------------------------------------------------|
B|--14h16-16b18(hold)-----16b18-16-14----------------------16----------------|
G|-------------------------------------15b17---13-13~~---------16b17~--------|
D|---------------------------------------------------------------------------|
A|---------------------------------------------------------------------------|
E|---------------------------------------------------------------------------|

e|-----------------------------------------------16--14p12p10----------------|
B|--14~---16b18~~--16b18y16~~~--------16b18~~~-------------------------------|
G|---------------------------------------------------------------------------|
D|---------------------------------------------------------------------------|
A|---------------------------------------------------------------------------|
E|---------------------------------------------------------------------------|

e|---------------------------------------------------------------------------|
B|--------16-------------------14~---16b18--16b18~~---14h16--16~~------------|
G|--15b17----15b17--13--15b17------------------------------------------------|
D|---------------------------------------------------------------------------|
A|---------------------------------------------------------------------------|
E|---------------------------------------------------------------------------|
Suggest correction
Give kudos to tab author, rate the tab!
1 2 3 4 5
comments
print report bad tab
guest
You may want to rate the tab now too:
select rating
Wanna post a correction for this tab? Suggest correction