Oops, an error
Loading. Please wait.

Heartbreak Warfare Tab

version 2
version 2

Whole song

Interactive

8,643 views 1 this week
3 commentsread comments
1 2 3 4 5
worth learning
x 5
add to favorites
launch autoscroll
font size
0
reset
how to read this tab
guitar tuner
Autoscroll
slow
fast
+/-
esc
set tempo
stop
Help us to improve Ultimate-Guitar.com Take our survey!
×
Author
Difficulty
novice
-----------------------------------------------------------------------------
                Heartbreak Warfare Interpretation (Acoustic) - John Mayer
-----------------------------------------------------------------------------
Tabbed by: joey_c_13

Tuning: Standard (EADGBe)

Hint: Use your thumb on the E string of the first chord.


Verse /Chorus
-------------------------------------------------------------------|
-------------------------------------------------------------------|
--6-6-6-6-7-7-7-7-6-6-6-6-7-7-7-7--6-6-6-6-7-7-7-7-6-6-6-6-7-7-7-7-|
--7-7-7-7-7-7-7-7-7-7-7-7-7-7-7-7--7-7-7-7-7-7-7-7-7-7-7-7-7-7-7-7-|
--7-7-7-7-7-7-7-7-7-7-7-7-7-7-7-7--5-5-5-5-5-5-5-5-5-5-5-5-5-5-5-5-|
--5-5-5-5-5-5-5-5-5-5-5-5-5-5-5-5----------------------------------|


If you want more...
--2-2-2-2-5-5-5-5---------------------------------|
--2-2-2-2-5-5-5-5---------------------------------|
--2-2-2-2-6-6-6-6-6-6-6-6-7-7-7-7-6-6-6-6-7-7-7-7-|
--4-4-4-4-7-7-7-7-7-7-7-7-7-7-7-7-7-7-7-7-7-7-7-7-|
--4-4-4-4-7-7-7-7-5-5-5-5-5-5-5-5-5-5-5-5-5-5-5-5-|
--2-2-2-2-5-5-5-5---------------------------------|


Just say so...
----------------------|
----------------------|
--9--9--9--9--4-4-4-4-|
--10-10-10-10-5-5-5-5-|
--8--8--8--8--3-3-3-3-|
----------------------|


How come the only way to...
-------------------------------------------------|
-------------------------------------------------|
-9--9--9--9--9--9--9--9--9--9--9--9--9--9--9--9--|
-10-10-10-10-10-10-10-10-10-10-10-10-10-10-10-10-|
-8--8--8--8--8--8--8--8--8--8--8--8--8--8--8--8--|
-------------------------------------------------|

--------------------------------                 ---|
--------------------------------                 ---|
-4-4-4-4-4-4-4-4-4-4-4-4-4-4-4-4                 -6-|
-5-5-5-5-5-5-5-5-5-5-5-5-5-5-5-5   It ends with  -7-|  then back to verse
-3-3-3-3-3-3-3-3-3-3-3-3-3-3-3-3                 -7-|
--------------------------------                 -5-|
Suggest correction
comments
print report bad tab
3 comments total.
-1 reply
libertyfalls 10 wrote on February 17 2010, 06:27 pm

whole song is wrong... start over.

0 reply
joey_c_13 136 wrote on February 17 2010, 06:33 pm

How could that be? I know this is not the way John plays it, look at stopthistrain's tab, his is closer interpretation. Mine is alternative but follows the same chord progression.

0 reply
Chevelle454 10 wrote on March 21 2010, 09:09 pm

Your chord progression might be right, but its still not his song. Call it "Heartbreak Warfare Interpretation", or something else, because this simply isn't how it is played, and shouldn't be advertised as so.

guest
You may want to rate the tab now too:
select rating
Please do not post tabs as comments. Select "correction" instead!