Oops, an error
Loading. Please wait.

Helpless solo tab

2,458 views 237 this week
3 commentsread comments
1 2 3 4 5
x 5
add to favorites
×
Save as Personal and add changes to this tab that will be seen only by you. Learn more ›
×
You can save this tab as Personal to edit and correct it or add notes. All changes will be seen only by you. Learn more »
launch autoscroll
font size
0
reset
how to read this tab
guitar tuner
edit
Autoscroll
slow
fast
+/-
esc
set tempo
stop
[Solo]
|alt pick these notes|
e|---------------------------------------|-----------------------------------------|
B|---------------------------------------|-----------------8-----------------------|
G|-------5-7-8r7-5--8r7-5--7b9r7p5--~5~7-|-------5-7-8r7-5----7b8-8r7-5------------|
D|--5/7---------------------------h7-----|--5/7-------------------------7-5---5h7~~|
A|---------------------------------------|----------------------------------7------|
E|---------------------------------------|-----------------------------------------|

      |fast alt pick these notes|               |fast alt pick these notes|
e|----------------------------------------|-----------------------------------------|
B|-------------------------8--------------|--------------------------10-------------|
G|------5-7-7b8-8r7-5-7/9-----------------|-------5-7-7b8-8r7-5-7/9-----------------|
D|----7-----------------------------------|-----7-----------------------------------|
A|----------------------------------------|-----------------------------------------|
E|----------------------------------------|-----------------------------------------|

         | Let     Ring   Out        |
e|----------------------------------------|-------------------15----------------------------|
B|-----------8----8----8----8~---10~~~----|-13-15-15-13-15b17----17r15-17r15----------13b14-|
G|-----5--7/9--7/9--7/9--7/9--7/9---------|----------------------------------14-12-14-------|
D|-5/7------------------------------------|-------------------------------------------------|
A|----------------------------------------|-------------------------------------------------|
E|----------------------------------------|-------------------------------------------------|


e|------------------------17-17-17-15----------17--|-------17-20b22-20b22-17----17~~17----20b22-17-17--|
B|------13-15-15-13-15/17-------------17-15-17-----|-17-20-------------------20--------20--------------|
G|--14---------------------------------------------|---------------------------------------------------|
D|-------------------------------------------------|---------------------------------------------------|
A|-------------------------------------------------|---------------------------------------------------|
E|-------------------------------------------------|---------------------------------------------------|

                                  
e|----------------------12-------------------------|------------------------|
B|--------17--------17-----15-12----12-------------|------------------------|
G|--19b20-----19b20--------------14----12b12.5-----|-7h9~7------------------|
D|---------------------------------------------14~-|-------9-7\5------------|
A|-------------------------------------------------|-------------7-5-7~~----|
E|-------------------------------------------------|------------------------|


e|-------------------------------------------------|
B|------------------------8----------8-------------|
G|-----------------7h9~~~---9-7-9~~7-7b9r7~~~~-----|   
D|-----5---7---7/9---------------------------------|   
A|-5/7---7---7-------------------------------------|   
E|-------------------------------------------------|



************************************

| p  Pull-off
| r  Release
| b  Bend
| ~  Vibrato
| h  Hammer-on
| /  Slide up
| \  Slide down
 
************************************

            
            
Suggest correction
Creating personal tab
Creating personal tab
You can edit any tab online and save it as your Personal.

You can edit, replace or remove any tab part or add personal notes – all changes will be seen only by you.

Personal tabs can be accessed anytime from any device, even offline.
Learn more »
comments
print report bad tab
3 comments total.
+5 reply
RichardArriaga 10 May 14, 2017 06:29 AM

This tab is awesome! I just learned this solo in 15 min. Big thanks!

guest
You may want to rate the tab now too:
select rating
Wanna post a correction for this tab? Suggest correction