Oops, an error
Loading. Please wait.

Hotel Bathroom Song Tab

version 1
version 1

Whole song

38,922 views 27 this week
2 commentsread comments
1 2 3 4 5
x 11
add to favorites
launch autoscroll
font size
0
reset
how to read this tab
guitar tuner
Autoscroll
slow
fast
+/-
esc
set tempo
stop
Help us to improve Ultimate-Guitar.com Take our survey!
×
Author
Difficulty
intermediate
Tuning: Standard

[Intro]
e|-----------|
B|-3--2--3---|
G|-2--2--4---|
D|-0--0--0---|
A|-x--x--x---|
E|-2--2--3---|

[Chorus]
e|-----------|
B|-3--5--7---|
G|-4--6--7---|
D|-5--7--9---|
A|-x--x--x---|
E|-3--5--7---|

[Bridge/Pre-Chorus]
e|-0----0----0---|            e|-0--0---|
B|-3----3----3---|            B|-3--3---|
G|-0----2----0---| (x2) then  G|-0--0---|
D|-2----2----0---|            D|-0--2---|
A|-2----x----x---|            A|-3--3---|
E|-0----2----3---|            E|-x--x---|



************************************

| x  Dead note

************************************
Suggest correction
comments
print report bad tab
2 comments total.
+2 reply
andychalmers102 71 May 02, 2010 10:08 AM

this is good except i think the last chord in the verse sounds better as:

e|---|
B|-0-|
G|-2-|
D|-0-|
A|-x-|
E|-3-|

instead of

e|---|
B|-3-|
G|-4-|
D|-0-|
A|-x-|
E|-3-|

+1 reply
dvalukis 61 Sep 23, 2011 08:16 AM

A few different things I hear.

The picking is closer to a loose version of Neon. There isn't that "pick" n' "slap" sound to it giving it a quarter-note driven beat.

And chord-wise, the biggest difference I see is:

Bridge / Pre-Chorus

e|-x----x----x---| e|-x--x---|
B|-3----3----3---| B|-3--3---|
G|-2----2----2---| (x2) then G|-2--2---|
D|-0----2----0---| D|-0--2---|
A|-2----0----x---| A|-x--0---|
E|-x----x----3---| E|-3--x---|

Instead of the Em-F#-G climb.

guest
You may want to rate the tab now too:
select rating
Wanna post a correction for this tab? Suggest correction