Oops, an error
Loading. Please wait.

Hotel Bathroom Song Tab

version 2
version 2

Whole song

751 views 12 this week
no commentswrite comment
1 2 3 4 5
2 more votes to show rating
add to favorites
launch autoscroll
font size
0
reset
how to read this tab
guitar tuner
×
Best way to learn
"Hotel Bathroom Song"
Autoscroll
slow
fast
+/-
esc
set tempo
stop
Author
Difficulty
Hotel Bathroom Song (Everything you'll ever be)
Tabbed By Tan Yan Zhang
Standard Tuning 

[Intro]
e|---------------------------------------------------------------------------|
B|--3-----------3--------3----2----0-----------0--------0-----------0--------|
G|--------2-----------2------------------2-----------2--------2-----------2--|
D|-----0-----------0------------------0-----------0--------0-----------0-----|
A|---------------------------------------------------------------------------|
E|--2--------2-----------2----2----3--------3-----------3--------3-----------|

e|---------------------------------------------------------------------------|
B|--3-----------3--------3----2----0-----------0--------0-----------0--------|
G|--------2-----------2------------------2-----------2--------2--------------|
D|-----0-----------0------------------0-----0-----0-----0--0-----0-----0-----|
A|---------------------------------------------------------------------------|
E|--2--------2-----------2----2----3-----------------------------------------|

[Verse]
Beautiful, I watch you try....
e|---------------------------------------------0-----------------------------|
B|--3-----------3--------3----2----0--------------------0-----------0--------|
G|--------2-----------2------------------2-----------2--------2--------------|
D|-----0-----------0------------------0-----------0--------0-----------0-----|
A|---------------------------------------------------------------------------|
E|--2--------2-----------2----2----3--------3-----------3--------3-----------|

e|---------------------------------------------------------------------------|
B|--3-----------3--------3----2----0-----------0--------0-----------0--------|
G|--------2-----------2------------------2-----------2--------2-----------2--|
D|-----0-----0-----0------------------0-----0-----0--------0-----0-----0-----|
A|---------------------------------------------------------------------------|
E|--2--------------------2----2----3--------------------3--------------------|

e|--------------0------------------------------0-----------------------------|
B|--3--------------------3----2----0--------------------0-----------0--------|
G|--------2-----------2------------------2-----------2--------2--------------|
D|-----0-----------0------------------0-----------0--------0-----------0-----|
A|---------------------------------------------------------------------------|
E|--2--------2-----------2----2----3--------3-----------3--------3-----------|

They only show you backwards....
e|----------------------------------------------------|
B|--3-----------3--------3----3-----------0--------3--|
G|--------2-----------2-------------0-----------0-----|
D|-----0-----0-----0-------------0-----0-----0--------|
A|----------------------------------------------------|
E|--2--------------------2----3--------------------3--|

[Chorus]
The magic and the misery....
e|-------------------------------------------------------------|
B|--3-----------3-----5-----7----------7-----7-----------7-----|
G|--------4-----------------------7----------------7-----------|
D|-----5-----------5-----7-----9----------9-----9-----------9--|
A|-------------------------------------------------------------|
E|--3--------3--------5-----7--------7-------7--------7--------|

e|------------------------------------------------------------|
B|--3-----------3-----5-----7---------7-----7-----------7-----|
G|--------4-----------------------7---------------7-----------|
D|-----5-----5-----5-----7-----9---------9-----9-----------9--|
A|------------------------------------------------------------|
E|--3-----------------5-----7-------7-------7--------7--------|

e|------------------------------------------------------------|
B|--3----------3-----5-----7----------7-----7-----------7-----|
G|--------4----------------------7----------------7-----------|
D|-----5-----5----------------9----------9-----9-----9-----9--|
A|------------------------------------------------------------|
E|--3-------------3--5--7--7--------7-------7-----------------|

You already are to me....
e|--------------------------|
B|--3-----------3-----5-----|
G|--------4-----------------|
D|-----5-----5-----5-----7--|
A|--------------------------|
E|--3-----------------5-----|

e|---------------------------------------------------------------------------|
B|--3-----------3--------3----2----0--------0--0--------0--------0--0--------|
G|--------2-----------2------------------2-----------2--------2-----------2--|
D|-----0-----------0------------------0-----------0--------0-----------0-----|
A|---------------------------------------------------------------------------|
E|--2--------2-----------2----2----3--------x-----------x--------x-----------|

e|---------------------------------------------------------------------------|
B|--3--------0--3--------3----2----0-----------0--------0--------0--0--------|
G|--------2-----------2------------------0-----------0--------0-----------0--|
D|-----0-----------0------------------0-----------0--------0-----------0-----|
A|---------------------------------------------------------------------------|
E|--2--------x-----------2----2----3--------3-----------x--------x-----------|

[Verse]
You were only five years old
e|----------------------------------------------------------------------------|
B|--3-----------3-------3--3--2--2--0----------0-----------0-----------0------|
G|--------2-----------------------------2--2-------2--2--------2--2--------2--|
D|----------------------------------------------------------------------------|
A|----------------------------------------------------------------------------|
E|--2--x-----2-----x----2--x--2--x--3---x----3-----x-----3-----x-----3-----x--|

e|----------------------------------------------------------------------------|
B|--3-----------3--3----3--3--2--2--0----------0-----------0-----------0------|
G|-----2--2-----------------------------2--2-------2--2-------2--2---------2--|
D|----------------------------------------------------------------------------|
A|----------------------------------------------------------------------------|
E|--2--x-----2-----x----2--x--2--x--3---x----3-----x-----3-----x-----3-----x--|

e|---------------------------------------------------------------------------|
B|--3-----------3--3----3--3--2--2--0----------0--------0-------------0------|
G|-----2--2-----------------------------2--2-------2----------2--2--------2--|
D|---------------------------------------------------------------------------|
A|---------------------------------------------------------------------------|
E|--2--x-----2-----x----2--x--2--x--3---x----3-----x----3-----x-----3-----x--|

With my plastic sword and playground shoes....
e|-------------------------------------------------|
B|--3-----------3--3----3-----3-----------3--3--3--|
G|-----2--2----------------2-----0--0--------------|
D|-------------------------------------------------|
A|-------------------------------------------------|
E|--2--x-----2-----x----2--x--3--x-----3-----x--3--|

[Chorus]
Saying "if my dear I'm wrong somehow....
e|----------------------------------------------------------------|
B|--3-----------3--3----5-----7-----------7--7--7-----------7--7--|
G|-----4--4----------------6-----7--7--------------7--7-----------|
D|----------------------------------------------------------------|
A|----------------------------------------------------------------|
E|--3--x-----3-----x----5--x--7--x-----7-----x--7--x-----7-----x--|

e|----------------------------------------------------------------|
B|--3-----------3--3----5-----7-----------7--7--7-----------7--7--|
G|-----4--4----------------6-----7--7--------------7--7-----------|
D|-----------5----------------------------------------------------|
A|----------------------------------------------------------------|
E|--3--x-----------x----5--x--7--x-----7-----x--7--x-----7-----x--|

e|----------------------------------------------------------------|
B|--3-----------3--3----5-----7-----------7--7--7-----------7--7--|
G|-----4--4----------------6-----7--7--------------7--7-----------|
D|-----------5-------------------------9-----------------9--------|
A|----------------------------------------------------------------|
E|--3--x-----------x----5--x--7--x-----------x--7--x-----------x--|

You already are to me....
e|----------------------------|
B|--3-----------3--3----5-----|
G|-----4--4----------------6--|
D|-----------5----------------|
A|----------------------------|
E|--3--x-----------x----5--x--|

John starts strumming from this part on.Using the same chord shapes
as the plucking patterns above.
The Chords are....

e|--0--|--0--|--0--|
B|--3--|--2--|--0--|
G|--2--|--2--|--2--|
D|--0--|--0--|--0--| 
A|--0--|--0--|--0--|
E|--2--|--2--|--3--| X2
   (1)   (2)   (3)

etc of stumming pattern
Chord(1),Down,Up,Up,Down,Up,Up,Down,Chord(2)Down,Chord(3)Down,Up,Up,Down,Up,Up,Down,Up
^he strums according to the chord progression,
twice
in the same timing as the plucking patterns earlier.

[Bridge}
Why
I don't know why...
e|--0--|--0--|--0--|--0--|
B|--3--|--3--|--3--|--2--|
G|--2--|--2--|--0--|--2--|
D|--0--|--0--|--0--|--2--|
A|--2--|--0--|--0--|--0--|
E|--0--|--2--|--3--|--2--|
   (4)   (5)   (6)   (7)

Chord(4),Down,Up,Up,Down,Up,Up,Down,Up
Chord(5),Down,Up,Up,Down,Up,Up,Down,Up
Chord(6),Down,Up,Up,Down,Up,Up,Down,Up,Down,Up,Up,Down,Up,Up,Down,Up

How
I don't know how
Chord(4),Down,Up,Up,Down,Up,Up,Down,Up
Chord(5),Down,Up,Up,Down,Up,Up,Down,Up

I don't know how but
I just...
Chord(6),Down....faded down strum

....sit back and I see my way right through it
Chord(7),Down,Up,Up,Down,Up,Up,Down..Down

[Verse]
When the memories are ten feet tall....
e|---------------------------------------------0-----------------------------|
B|--3-----------3--------3----2----0--------------------0-----------0--------|
G|--------2-----------2------------------2-----------2--------2--------------|
D|-----0-----------0------------------0-----------0--------0-----------0-----|
A|---------------------------------------------------------------------------|
E|--2--------2-----------2----2----3--------3-----------3--------3-----------|

e|---------------------------------------------------------------------------|
B|--3-----------3--------3----2----0-----------0--------0-----------0--------|
G|--------2-----------2------------------2-----------2--------2-----------2--|
D|-----0-----0-----0------------------0-----0-----0--------0-----0-----0-----|
A|---------------------------------------------------------------------------|
E|--2--------------------2----2----3--------------------3--------------------|

e|--------------0------------------------------0-----------------------------|
B|--3--------------------3----2----0--------------------0-----------0--------|
G|--------2-----------2------------------2-----------2--------2--------------|
D|-----0-----------0------------------0-----------0--------0-----------0-----|
A|---------------------------------------------------------------------------|
E|--2--------2-----------2----2----3--------3-----------3--------3-----------|

Will you hear me singing out tonight?
Chord(1),Down,Up,Up,Down,Up,Up,Down,Chord(2)Down,Chord(3),Down,Up,Up,Down,Up,Up,Down,Up x2

e|--0--|--0--|--7--|
B|--3--|--5--|--7--|
G|--4--|--6--|--7--|
D|--5--|--7--|--7--|
A|--0--|--0--|--0--|
E|--3--|--5--|--7--|
   (8)   (9)   (10)

[Chorus]
Days are long and words are cruel...
Chord(8),Down,Up,Up,Down,Up,Chord(9)Down,Up,Chord(10),Down,Up,Up,Down,Up,Up,Down,Up x3

You have always been....
Chord(8),Down,Up,Up,Down,Up,Chord(9)Down,Up

to me....
Chord(1),Down,Up,Up,Down,Up,Up,Down,Chord(2)Down,Chord(3)Down,Up,Up,Down,Up,Up,Down,Up

Always been to me, yeah, yeah
Always been to me, yeah
Always, oh oh
Always been to me, yeah, yeah
Always been to me
[Outro]
Chord(1)Down,Up,Up,Down,Up,Up,Down,Up,Chord(3),Down,Up,Up,Down,Up,Up,Down,Up x4
Chord(1)Down,Up,Up,Down,Up,Up,Down,Up,Chord(3),Down.....
 
************************************
| x  percussive slap
************************************ 
Suggest correction
Give kudos to tab author, rate the tab!
1 2 3 4 5
comments
print report bad tab
guest
You may want to rate the tab now too:
select rating
Wanna post a correction for this tab? Suggest correction