Oops, an error
Loading. Please wait.

Human Nature tab

version 3
version 3

Whole song

Interactive

18,440 views 18 this week
no commentswrite comment
1 2 3 4 5
x 3
add to favorites
×
Save as Personal and add changes to this tab that will be seen only by you. Learn more ›
×
You can save this tab as Personal to edit and correct it or add notes. All changes will be seen only by you. Learn more »
launch autoscroll
font size
0
reset
how to read this tab
guitar tuner
edit
Autoscroll
slow
fast
+/-
esc
set tempo
stop
Author
Difficulty
-------------------------------------------------------------------------------
                             Human Nature- Michael Jackson
                               (as played by John Mayer)
-----------------------------------------------------------------------------

Tabbed by:MAGICtheREGGAE
Email:jacmar89@gmail.com

Tuning:Standard

I suggest listening to John Mayer performing this song while you're reading this tab.
that the more you slide to hit the notes in the intro the better it will sound. It also
it to come together if you can hit the strings with your thumb to the beat of the snare. 
really just follows the melody of the lyrics. Any comments or questions you can reach me
jacmar89@gmail.com

finger pick
e ---------2-----------------------------------------------------------------|
b -2/3-----3------5-----------------------------------3--2---4--4/2-4--------|
g -3/4------------6-----------2/4-2---------------2/4------------------------|
d -----------------------------------2/4-2-----------------------------------|
a -------------------------------------------------------0-------------------|
e -2/3------------5-----------2-2-2-----------3-----------------2---2----3---|


e ---------2---------------------------------------------------2-------------|
b -2/3-----3------5---3-3/2---------------------------3---5--------3---------|
g -3/4------------6-----------2/4-2---------------2/4------------------------|
d -----------------------------------2/4-2-----------------------------------|
a --------------------------------------------------------0------------------|
e -2/3------------5-----------2-2-2-----------3----------------2---3---------|


e -----------------5-----------------------------------------5--------------|
b -2--2/4-2----3---5--5------7--5--3--2------------------3---5--5----3--3-3-|
g -------------4------6------7--6--4--2--2/4-2-----------4------6-----------|
d ---------------------------------------------2/4-2------------------------|
a ---------------------------9-----0----------------------------------0-----|
e -------------3------5---------------2----------------2-3------5-----------|

e ------------------------5-----------------------------------------5------|
b /5-3----------------3---5--5------7--5--3--2------------------3---5--5---|
g -----4---2--2/4-2---4------6------7--6--4--2--2/4-2-----------4------6---|
d ----------------------------------------------------2/4-2----------------|
a ----------------------------------9-----0--------------------------------|
e ---------2--2-------3------5--------------------------------2-3------5---|


strum this
e -----------------------------------|
b 3--3-3/4-3--0--3--3-3/4-3--2-------|
g 0-----------0--0-----------0-------|
d 4-----------4--4-----------4-------|
a 0--------------0-----------0-------|
e ------------0--------------0-------|

That's the intro part where only the guitar plays. That's basically the whole song. This
part is where the band comes in if you got them. If you don't then you can still do it.
doesn't matter. It's basically a simpler version of the first part. Feel free to add 
flavor and add ons during this part to give it more your style.

slide down and up for this
e ---10---------------------10-----------------------|
b ------------10--10/9-10------------10--10/9-10-----|
g ---------------------------------------------------|
d ---------------------------------------------------|
a ---------------------------------------------------|
e ---------------------------------------------------|

e ---------------------------------------------------------------------------|
b -----3-----------------------------3-2----------------3--------------------|
g -2/4----4/6~~---2/4-2----------2/4-----4-4/2-4~~--2/4---4/6~~--2/4-2-------|
d ----------------------2/4-2------------------------------------------2/4-2-|
a ---------------------------------------------------------------------------|
e ---------------------------------------------------------------------------|

e ---------------------------------------------------------------------------|
b -----3-3/5~~~------3----------------------------3-2-----------------3------|
g -2/4-----~~~---2/4----4/6~~---2/4-2---------2/4-----4-4/2-4~~~--2/4---4/6--|
d ------------------------------------2/4-2----------------------------------|
a ---------------------------------------------------------------------------|
e ---------------------------------------------------------------------------|

e ------------------------------------------------------2--------------------|
b -------------------3-3/5~~5/6~~~3-----------------------5-3-2-2/3-2--------|
g -2/4-2---------2/4-------------------2-2/4-2--4~~6~~----------------4-2--2-|
d -------2/4-2---------------------------------------------------------------|
a ---------------------------------------------------------------------------|
e ---------------------------------------------------------------------------|

e -------------------------------------------------------2--------------------|
b ~~------3-3-3/5-3------3-3-3/5---------------------------5-3-2-2/3-2--------|
g 4~~6~~------------4~~~---------4~~~---2-2/4-2--4~~6~~----------------4-2--2-|
d ----------------------------------------------------------------------------|
a ----------------------------------------------------------------------------|
e ----------------------------------------------------------------------------|

e ----------------------------------------------------|
b ----5------3-3-3/5-3------3-3-3/5-5/7-7~~-----------|
g 2/4---6~~------------4~~~---------------------------|
d ----------------------------------------------------|
a ----------------------------------------------------|
e ----------------------------------------------------|

Next he just goes up an octave. So just treat twelve as zero or open string.
For example: e --0--1--2--3---  and  e --12--13--14--15---- are the same notes they're
in a different octave. Make aure that this time around you add a lot more bends and stuff
give it some style. So just treat twelve as zero and you'll do the other part of the 
without having to read a whole other set of tabs.

After the second part
He does this again
slide down and up for this
e ---10---------------------10-----------------------|
b ------------10--10/9-10------------10--10/9-10-----|
g ---------------------------------------------------|
d ---------------------------------------------------|
a ---------------------------------------------------|
e ---------------------------------------------------|

then it goes
e ---8----------------------8------------------|
b ----------10--10/9-10------------10--10/9-10-|
g ---------------------------------------------|
g ---------------------------------------------|
d ---------------------------------------------|
a ---------------------------------------------|
e ---------------------------------------------|

After that he just riffs and solos. So just tear it up and end it how you want.

I hope this made sense and that you learned how to play a new song. Thanks for reading.
to start out a little slower then you can go faster once you get the hang of it. Have
and I'm sure you'll get it after a couple of tries. Later

Lyrics in case anybody wanted them

Looking out
Across the night-time
The city winks a sleepless eye
Hear her voice
Shake my window
Sweet seducing sighs

Get me out
Into the night-time
Four walls wont hold me tonight
If this town
Is just an apple
Then let me take a bite

Chorus
If they say -
Why, why, tell em that is human nature
Why, why, does he do me that way
If they say -
Why, why, tell em that is human nature
Why, why, does he do me that way

Reaching out
To touch a stranger
Electric eyes are evrywhere
See that girl
She knows Im watching
She likes the way I stare


If they say -
Why, why, tell em that is human nature
Why, why, does he do me that way
If they say -
Why, why, tell em that is human nature
Why, why, does he do me that way
I like livin this way
I like lovin this way
(instrumental section)

Looking out
Across the morning
The citys heart begins to beat
Reaching out
I touch her shoulder
Im dreaming of the street


If they say -
Why, why, tell em that is human nature
Why, why, does he do me that way
If they say -
Why, why, tell em that is human nature
Why, why, does he do me that way
I like livin this way

R.I.P Michael Jackson
Suggest correction
Creating personal tab
Creating personal tab
You can edit any tab online and save it as your Personal.

You can edit, replace or remove any tab part or add personal notes – all changes will be seen only by you.

Personal tabs can be accessed anytime from any device, even offline.
Learn more »
Give kudos to tab author, rate the tab!
1 2 3 4 5
comments
print report bad tab
guest
You may want to rate the tab now too:
select rating
Wanna post a correction for this tab? Suggest correction