Oops, an error
Loading. Please wait.

Hurt tab

version 1
version 1

Whole song

35,164 views 24 this week
3 commentsread comments
1 2 3 4 5
x 13
add to favorites
×
Save as Personal and add changes to this tab that will be seen only by you. Learn more ›
×
You can save this tab as Personal to edit and correct it or add notes. All changes will be seen only by you. Learn more »
launch autoscroll
font size
0
reset
how to read this tab
guitar tuner
edit
Autoscroll
slow
fast
+/-
esc
set tempo
stop
Author
Difficulty
 John Mayer - The Hurt
 Tabbed by: Oleg.Ostyak


The song at first may be hard to play with the same rhythm that he plays it with but
a standard John Mayer slapping technique...In this song he plays a sort of bass to it too
will help you figure the rhythm. He basically plays the root or top note as his bass
of so for the first chord A he plays the A string then finger picks the xx222x and so
It's kinda weird to explain but you can get it in no time believe me.
Verse/Chorus
E|---------------------------------------|
B|--2---2---2---5----0---3----2---5------|
G|--2---4---2---6-7--6---5-4--2---7------|
D|--2---2---4---5----4---3----2---6------|
A|--0---x---x---x---/5---x----0--/7------|
E|------4---2---5--------3---------------|

Pre-Chorus
E|--------------|     |-----|
B|--0---5-------|     |--0--|
G|--1---7-6-7---|     |--7--|
D|--0---5-------| 2X  |--6--|
A|--2---x-------|     |--7--|
E|--0---5-------|     |-----|

Bridge
E|------------------------------------------------|
B|--0--------3--3---3------0------2---0---0---0---|
G|--6--(4)---2--h4--2------1-2-1--1---7---6---7---|
D|--4---6----2---------5---0------2---6---4---6---|
A|--5---4----3-------------2------0---7---x---7---|
E|------5---------------------------------5-------|
This is tabbed from a video...I've watched a few times.

Here are the full and actualy chords of the song
Verse:
(x0222x)(4x242x)(2x422x) (5x565x/5x575x/5x565x) (x5460x)
(3x353x/3x343x) x0222x x7675x

Chorus:
(02010x)(5x765x)

Bridge:
(x5465x/x5445x)
(5x645x/5x445x)
(x3243x/x3223x)

            
            
Suggest correction
Creating personal tab
Creating personal tab
You can edit any tab online and save it as your Personal.

You can edit, replace or remove any tab part or add personal notes – all changes will be seen only by you.

Personal tabs can be accessed anytime from any device, even offline.
Learn more »
comments
print report bad tab
3 comments total.
0 reply
ghmcsa 30 Aug 16, 2009 07:49 AM

Thank you for good tab!
I think that a prat of Pre-Chorus is a little different.
following tab is nearly correct/

Pre-Chorus
E|------------------------------------|
B|--0--0--0-----0--0--0----0---0-0----|
G|--1--7--6-----1--7--7----7---x-x----|
D|--2--7--7-----2--7--7-6--6---7-6----|
A|--0--0--0-----0--0--0--------7-7----|
E|--x--x--x-----x--x--x------0-0-0----|

0 reply
insanityman84 10 Sep 04, 2013 04:00 PM

E|-------------------------------------| 
B|--0-0-x-0-0-0-x-0---0-0-x-0-0-0-x-0--|
G|--1-1-x-1-1-1-x-1---7-7-x-7-6-6-x-6--|
D|--2-2-x-2-2-2-x-2---7-7-x-7-7-7-x-7--|
A|--0-0-x-0-0-0-x-0---0-0-x-0-0-0-x-0--|
E|------x-------x---------x-------x----|

E|-------------------------------------------------|
B|--0-0-x-0-0-0-x-0---0-0-x-0-0-0-x-0--------------|
G|--1-1-x-1-1-1-x-1---7-7-x-7-7-7-x-7--------------|
D|--2-2-x-2-2-2-x-2---7-7-x-7-6-6-x-6--------------|
A|--0-0-x-0-0-0-x-0---0-0-x-0---7-x----------------|
E|------x-------x---------x---0---x-0--------------|

0 reply
insanityman84 10 Sep 04, 2013 04:01 PM

I think it's like one above. I've played it like this and it sounds as close as anything I've heard him play. First post here - hope it's helpful!

guest
You may want to rate the tab now too:
select rating
Wanna post a correction for this tab? Suggest correction