Oops, an error
Loading. Please wait.
We have an official I Dont Trust Myself With Loving You tab made by UG professional guitarists. Check out the tab »
×

I Dont Trust Myself With Loving You solo tab

84,669 views 168 this week
20 commentsread comments
1 2 3 4 5
x 17
add to favorites
×
Save as Personal and add changes to this tab that will be seen only by you. Learn more ›
×
You can save this tab as Personal to edit and correct it or add notes. All changes will be seen only by you. Learn more »
launch autoscroll
font size
0
reset
how to read this tab
guitar tuner
backing track
0:00
0:00
edit
Autoscroll
slow
fast
+/-
esc
set tempo
stop
Author
Difficulty
Unregistered
intermediate
The only guitar part is really in the intro and solo. Here it is:

e|-------------------------|-------------------------|-----------------------|
B|------------8------------|-----------8-------------|-----------8-----------|
G|-------5------7~-5---5~7-|-------5-----7~-5--------|-------5-----7~-5---5~7|
D|---5-7---7---------7-----|---5-7---7--------7-5h7~-|---5-7---7--------7----|
A|/7-----------------------|/7-----------------------|/7---------------------|
E|-------------------------|-------------------------|-----------------------|

e|-------------------------|-------------------------------------------------|
B|-------------------------|-------------------------------------------------|
G|-------5-----------------|-------------------------------------------------|
D|---5-7---/9-7-5----------|-------------------------------------------------|
A|/7--------------7-5------|-------------------------------------------------|
E|--------------------8-8\-|-------------------------------------------------|

[Solo]
e|------------------------|--------------------------------------------------|
B|------------------------|--------------------------8/10~-------------------|
G|----------------5-------|--------------7(8)7-5-----------------------------|
D|-------5h7-5h7~---7~----|------5h7-5h7---------7-0-------------------------|
A|-----7---------------5\-|----7---------------------------------------------|
E|-5h8--------------------|5h8-----------------------------------------------|

e|10(11)10b1/4----------------------------|----------------------------------|
B|-------------10-------------------------|---------13-----------------------|
G|----------------12p9--------------------|12-13-14----14~-7-5---------------|
D|---------------------12p10------10------|--------------------7-5-----------|
A|---------------------------12p0----12p0-|------------------------7---------|
E|----------------------------------------|----------------------------------|

e|-------------------------|-------------------------------------------------|
B|-8-----------8-----------|-------------------------------------------------|
G|---9p7---------9p7-------|-----e-------------14~---------------------------|
D|-------10/12-------10/12-|----k--12h14-12-10-------------------------------|
A|-------------------------|---a---------------------------------------------|
E|-------------------------|--r----------------------------------------------|


********************************************

| /  slide up
| \  slide down
| h  hammer-on
| p  pull-off
| ~  vibrato
| +  harmonic
| x  Mute note

********************************************

            
            
Suggest correction
Creating personal tab
Creating personal tab
You can edit any tab online and save it as your Personal.

You can edit, replace or remove any tab part or add personal notes – all changes will be seen only by you.

Personal tabs can be accessed anytime from any device, even offline.
Learn more »
comments
print report bad tab
20 comments total. Showing first comments.
+5 reply
Remmy_214 10 Jun 30, 2009 09:15 AM

There is a 2nd guitar playing through the whole song. Pretty neat rhythm actually. The strait 8th notes you hear are the rhythm guitar. I'd kill a hobo for those chords.

0 reply
Advilmonkeyman 130 Jul 01, 2009 12:05 AM

Killing hobos is fun...
Yeah I would totaly do that for the chords to this song
Great tab tho!

0 reply
Txhxc 16 Jul 09, 2009 10:41 PM

e|--------------
B|--------------
G|-------5----
D|---5-7---7--
A|/7----7-----
E|------------

Feels like theres that extra 7 in there. At lesat I hear it. Listen closely and it doesnt sound lke a normal beat. Play the 7 on the 5th string like... immediately after the first one on the 4th.

guest
Wanna post a correction for this tab? Suggest correction