Oops, an error
Loading. Please wait.

If I Ever Get Around To Living tab

version 2
version 2

Whole song

54,333 views 159 this week
6 commentsread comments
1 2 3 4 5
x 29
add to favorites
×
Save as Personal and add changes to this tab that will be seen only by you. Learn more ›
×
You can save this tab as Personal to edit and correct it or add notes. All changes will be seen only by you. Learn more »
launch autoscroll
font size
0
reset
how to read this tab
guitar tuner
edit
Autoscroll
slow
fast
+/-
esc
set tempo
stop
Author
Difficulty
intermediate
Tabbed by: Rocio
Tuning: Standard


[Intro/Verse]
            Fmaj7          Fmaj7          Dadd9          Dadd9
e|------------0--------------0--------------0--------------0-----------|
B|----------6---6----------6---6----------3---3----------3---3---------|
G|--------5----------5---5---------5----2---------2----2----------2----| 
D|------7----------7---7---------7----4---------4----4----------4------|
A|---------------------------------------------------------------------|
E|---------------------------------------------------------------------|

[End of verse/Interlude]
         G                  Dm7        
e|-------3-------------------8------------|
B|-------3-------------------6------------|
G|-------0-------------------5------------|
D|-------0-------------------7------------|  x2
A|-------x-------0--2--3-----5------------|
E|-------3----3---------------------------|

[Bridge, and until the end]
       C     F     C    F  
e|-----0-----0-----0----0---------------------|
B|-----1-----1-----1----1---------------------|
G|-----0-----2-----0----2---------------------|
D|-----2-----3-----2----3---------------------|
A|-----3-----x-----3----x---------------------|
E|-----0-----1-----0----1---------------------|
You are hiding in your mind...

[Solo & Guitar riffs]
(Part 1)

Guitar 1:
e|-----------------------------------------------------------------|
B|-----------------------------------------------------------------|
G|----10/12-10-9----9------9---------------------------------------|
D|---------------12--10-12---10-12~--------------------------------|
A|-----------------------------------------------------------------|
E|-----------------------------------------------------------------|

Guitar 2: 
e|-----------------------------------------------------------------|
B|-----------------------------------------------------------------|
G|----------10-----------------------------------------------------|
D|----10/12---12-10-12--9-10-12--9-10~-----------------------------|
A|-----------------------------------------------------------------|
E|-----------------------------------------------------------------|

(Part 2)

e|-----------------------------------------------------------------|
B|---12-15-10---17-12--15-13---------------------------------------|
G|-----------------------------------------------------------------|
D|-----------------------------------------------------------------|
A|-----------------------------------------------------------------|
E|-----------------------------------------------------------------|

(Part 3)

e|----------------------------12-13-12--13-15-15/17-15-13--12-------------|
B|---------12----12-13-15---15-------------------------------13-15-15~----|
G|---12-14----------------------------------------------------------------|
D|------------------------------------------------------------------------|
A|------------------------------------------------------------------------|
E|------------------------------------------------------------------------|

e|----------------------------12-13-12------------------------------------|
B|---------12----12-13-15---15---------15-13-10/12------------------------|
G|---12-14-----------------------------------------12----10---------------|
D|----------------------------------------------------12----10-12~--------|
A|------------------------------------------------------------------------|
E|------------------------------------------------------------------------|

e|-----------------------------------------------------------------|
B|-----------------------------------------------------------------|
G|-----------------------------------------------------------------|
D|---12-12-12-12-9---9-9-9-9-7---7-7-7-7-5-5-5---------------------|
A|-----------------------------------------------------------------|
E|-----------------------------------------------------------------|

e|------------------------------------------------------------------10-12~-|
B|------------------------------------------------------------------12-13~-|
G|--------------------------------------------------------12-14-14~--------|
D|---10-10-10-10-7-7--------------12-10--9-10-12--12-14-15-----------------|
A|--------------------8-10-10~---------------------------------------------|
E|-------------------------------------------------------------------------|

(Part 4)

e|-------------12------------------------------------12-------------------|
B|--12~--13-15---13--13-12-10-10~----10-12-12~--13-15--13-15/17-15-15~----|
G|---------------------------------12-------------------------------------|
D|------------------------------------------------------------------------|
A|------------------------------------------------------------------------|
E|------------------------------------------------------------------------|
And then, this riff until the end:
e|-------------------12------------------------------------12---------------|
B|---10---12~--13-15---13--13-12-10-10~----10-12-12~--13-15--13-15/17-15-15~|
G|-12--12--------------------------------12---------------------------------|
D|--------------------------------------------------------------------------|
A|--------------------------------------------------------------------------|
E|--------------------------------------------------------------------------|


(Lyrics & Chords)

[Verse 1]
Fmaj7                     Dadd9
If I ever get around to living
Fmaj7                     Dadd9
I'm gonna put my things away
Fmaj7                     Dadd9
In the drawers and in the closets
                G     Dm7
And there I'll stayyyy,
G       Dm7
stayyyyyy

[Verse 2]
Fmaj7                     Dadd9
If I ever get around to living
Fmaj7                     Dadd9
It's gonna be just like I dreamed
Fmaj7                     Dadd9
I'm gonna take the love I'm given
          G          Dm7
And set it freeeeeeeeee
G        Dm7
freeeeeeee

[Verse 3]
Fmaj7                     Dadd9
If I ever get around to living
Fmaj7                     Dadd9
I'll take teh end of every day
Fmaj7                     Dadd9
Tie it up to every morning
        G          Dm7
and sail awayyyyyyy
G         Dm7
awayyyyyyyy

[Interlude 1]
G Dm7

[Bridge]
G                 Dm7                 G      
Maybe it's all a dream I'm having at seventeen
                Dm7
I don't have tattoos
     G                         Dm7
And very soon, mother will be calling me
           G                                Dm7
Saying " Come up stairs, you've got some work to do"

[Interlude 2]
G  Dm7  (x4)

C F (x4)

C                   F  
When are you gonna wise up, boy?
C                   F 
When are you gonna wise up, boy?
C                   F 
When are you gonna wise up, boy?
C                   F 
When are you gonna wise up, boy?

C                     F 
You're hiding in your mind
                C
working all the time
                    F
trying to make it better than you got it
     C                             F
And you've been spending all your time
                 C
searching for a sign
                      F
That's never going to look the way you wanted

C                   F  
I think you better wise up, boy
C                   F 
I think you better wise up, boy
C                   F 
I think you better wise up, boy
C                   F 
I think you better wise up, boy
 

************************************

| x  Dead note
| /  Slide up
| ~  Vibrato 

************************************

            
            
Suggest correction
Creating personal tab
Creating personal tab
You can edit any tab online and save it as your Personal.

You can edit, replace or remove any tab part or add personal notes – all changes will be seen only by you.

Personal tabs can be accessed anytime from any device, even offline.
Learn more »
comments
print report bad tab
6 comments total. Showing first comments.
0 reply
blok31092 36 May 22, 2012 06:05 PM

great tab for my favorite song on the album!

+1 reply
rocfg 384 May 23, 2012 08:15 AM

Thank you! Definitely, best song on the album :)

+2 reply
blok31092 36 Jul 04, 2012 10:27 AM

You're the man!! Thanks for adding the solos! You got some ear mate!

guest
You may want to rate the tab now too:
select rating
Wanna post a correction for this tab? Suggest correction