Oops, an error
Loading. Please wait.

In Your Atmosphere Tab

version 4
version 4

Whole song

Interactive

346,789 views 630 this week
no commentswrite comment
1 2 3 4 5
please rate
add to favorites
launch autoscroll
font size
0
reset
how to read this tab
guitar tuner
Autoscroll
slow
fast
+/-
esc
set tempo
stop
Help us to improve Ultimate-Guitar.com Take our survey!
×
Author
Difficulty
Bmayer 73
intermediate
-------------------------------------------------------------------------------
                             In Your Atmosphere - John Mayer
-------------------------------------------------------------------------------
Tabbed by:beau Roelofsma
Email:beauroelofsma@live.nl


Tuning:
E
b
f#
E
b
E


[Intro]

e|--12+-------------------|--12+------------------------------------|
B|--12+-------------------|--12+-----0-0----------------------------|
G|----------0-0-----------|--------------0h9~p7---------------------|
D|---------------0h9~p7---|-----------------------------------------|
A|------------------------|-----------------------------------------|
E|0------5---5------------|0------5---5-----------------------------|
repeat 4 times


[verse]

I don't think....                      I don't think....
e|--12+--0--------12+------------------|--12+--0-------12+-----------------|
B|--12+--0--------12+------------------|--12+--0-------12+-----0-0---------|
G|-------0-----------------0-0---------|-------0--------------------0h9~p7-|
D|-------0----------------------0h9~p7-|-------0---------------------------|
A|-------0-----------------------------|-------0---------------------------|
E|0------5------0------5----5----------|0------5-----0------5---5----------|


I don't how it's...           I don't think i'm...   
e|--12+--0------0--0--0->-------0--0->------------------------------|
B|--12+--0------0--0--0->-------0--0->------------------------------|
G|-------0------10-9--2->-------7--9->------------------------------|
D|-------0------9--7--2->-------5--7->------------------------------|
A|-------0------x--x--x->-------x--x->------------------------------|
E|0------5------9--7--3->-------5--7->------------------------------|


[interlude]

e|--12+-----5-5-5-5-5--4-4-4-----0-0-0-0-0--0-0-0----5-5-5-5-5--4-4-4------|
B|--12+-----7-7-7-7-7--5-5-5-----0-0-0-0-0--0-0-0----7-7-7-7-7--5-5-5------|
G|----------x-x-x-x-x--x-x-x-----7-7-7-7-7--5-5-5----x-x-x-x-x--x-x-x------|
D|----------0-0-0-0-0--0-0-0-----5-5-5-5-5--4-4-4----0-0-0-0-0--0-0-0------|
A|-------------------------------------------------------------------------|
E|0------5--------------------5--------------------5-------------------5---|

e|--------------------|
B|--------------------|
G|--0-0---------------|
D|-------0h9~p7-------|
A|--------------------|
E|---5----------------|


[Verse]

I don't think....                      
e|--12+--0--------12+------------------|--12+--0-------12+-----------------|
B|--12+--0--------12+------------------|--12+--0-------12+-----0-0---------|
G|-------0-----------------0-0---------|-------0--------------------0h9~p7-|
D|-------0----------------------0h9~p7-|-------0---------------------------|
A|-------0-----------------------------|-------0---------------------------|
E|0------5------0------5----5----------|0------5-----0------5---5----------|


e|--12+--0------0--0--0->-------0--0->------------------------------|
B|--12+--0------0--0--0->-------0--0->------------------------------|
G|-------0------10-9--2->-------7--9->------------------------------|
D|-------0------9--7--2->-------5--7->------------------------------|
A|-------0------x--x--x->-------x--x->------------------------------|
E|0------5------9--7--3->-------5--7->------------------------------|

 
e|--12+-------------------|--12+------------------------------------|
B|--12+-------------------|--12+-----0-0----------------------------|
G|----------0-0-----------|--------------0h9~p7---------------------|
D|---------------0h9~p7---|-----------------------------------------|
A|------------------------|-----------------------------------------|
E|0------5---5------------|0------5---5-----------------------------|
one time 


[Chorus]

i'm gonna... 3x        cause i'd die...      So I don't...  
e|--0-----0--0-----| 
B|--0-----0--0-----|
B|--0-----0--0-----|
G|--3-----10-9-----|
D|--2-----9--7-----|
A|--x-----x--x-----|

burn up...
e|--0-----0--0-----|
B|--0-----0--0-----|
G|--3-----10-9-----|
D|--2-----9--7-----|
A|--x-----x--x-----|
E|--2-----9--7-----|

I'm gonna 
e|--0-----0--0-----|
B|--0-----0--0-----|
G|--3-----10-9-----|
D|--2-----9--7-----|
A|--x-----x--x-----|
E|--2-----9--7-----|


cause i die..                   so i...
e|----0-----0--0---0--0--0--0--0-----|
B|----0-----0--0---0--0--0--0--0-----|
G|----5-----10-9---5--7--5--7--9-----|
D|----4-----9--7---4--5--4--5--7-----|
A|----x-----x--x---x--x--x--x--x-----|
E|----4-----9--7---4--5--4--5--7-----|


e|--12+-------------------|--12+------------------------------------|
B|--12+-------------------|--12+-----0-0----------------------------|
G|----------0-0-----------|--------------0h9~p7---------------------|
D|---------------0h9~p7---|-----------------------------------------|
A|------------------------|-----------------------------------------|
E|0------5---5------------|0------5---5-----------------------------|


play [intro] 2 times

e|---0-0-0-0----0----0--|---0---0---0---0---0---------------===-----|
B|---5-7-9-12---10---5--|---4---5---4---5---4-----------------------|
G|---x-x-x-10---10---3--|---5---5---5---5---5-----------------------|
D|---0-0-0-0----0----0--|---0---0---0---0---0-----------------------| 
A|---0-0-0-0----0----0--|---0---0---0---0---0-----------------------|
E|---0-0-0-9----9----5--|---5---5---5---5---0-----------------------|
  repeat 3 times          end with


think i'm gonna stay....
e|---0---0---------|
B|---0---0---------|
G|---5---7---------|
D|---4---5---------|
A|---x---x---------|
E|---4---5---------|
repeat a few times


now you know everything
Hope this will work and enjoy:D
http://www.youtube.com/watch?v=oG7ltZ4dg2A performance of john,perhaps this could help

intro 4x
verse
interlude
verse 
intro 1x
chorus
intro 2x
bridge
verse
intro 1x
chorus 2x


************************************

| x  Dead note
| h  Hammer-on
| >  Accented note

************************************
Suggest correction
What's this?
You can suggest a correction to this tab. Community and Mods will review your correction and vote to approve or reject it.
comments
We did not receive enough feedback on this tab! Please rate:
print report bad tab
1 2 3 4 5
guest
You may want to rate the tab now too:
select rating
Please do not post tabs as comments. Select "correction" instead!