Oops, an error
Loading. Please wait.

Lenny Tab

48,045 views 33 this week
no commentswrite comment
1 2 3 4 5
x 20
add to favorites
×
Save as Personal and add changes to this tab that will be seen only by you. Learn more ›
×
You can save this tab as Personal to edit and correct it or add notes. All changes will be seen only by you. Learn more »
save as personal
new!
launch autoscroll
font size
0
reset
how to read this tab
guitar tuner
Autoscroll
slow
fast
+/-
esc
set tempo
stop
Author
Difficulty
intermediate
Author/Artist: John Mayer
Title: Lenny
Album: Room for Squares - Bonus Track
Transcribed by: who999
Tuning: Standart
This is my first tab.  Corrections/Comments welcome.

e|------------------------------------------------------------------------------|
B|------------------------12----12----------------------------------------------|
G|----9h11-9----9----9----11h13----9-11-9h11-9----9h11v-------------------------|
D|----9h11-9h11-9h11-9h11----------------------11-----------9-------------------|
A|----9----9h11-9h11-9h11------------------------------9h11---11\9-7---7h9v-7---|
E|-0-----------------------------------------------------------------9----------|

e|------------------------------------------------------------------------------|
B|-----------------14-12-----------------5--------------------------14-12-------|
G|-----------------13----11h13-11--------6---------9-9h11-----------13----------|
D|-----------2-----13-------------14-----4---------9------11-----9--13----------|
A|-----------------11----------------0-0-0----9/11----------9h11----11----------|
E|-9/7-5-2h4---0-0-0---------------------5-0----------------------0-0-----------|

e|------------------------------------------------------------------------------|
B|-----------------5-----5-------6---------7-----7-7-7--------------------------|
G|-11h13-11--------6-------6-------7-----8-6h8---6-8-9-6-4----------------------|
D|----------14-----4---4-------5-------6-------9-----------6-4------------------|
A|-------------0-0-0-------------------------------------------7-5--------------|
E|-----------------5-5------/6------/7-----------------------------/10-10-------|

e|-10----10--------------------0---------------0-------------7---5---3----------|
B|-10h12-10-----------------10---10---------10---10--------------------3-3-3----|
G|----------11-9---------12---------12---12---------12\---/7---5---4---4-4-4----|
D|---------------12----0---------------0-------------------------------5-5-5----|
A|------------------------------------------------------------------------------|
E|------------------10--------------------------------/3------------------------|

e|---------------------------12^------------------------------------------------|
B|-----6-6-------5-----------12^------------------------------------------------|
G|-----5-5-------4h6-----------------------9---------9----9----9----------------|
D|---------8-7---7-------------------------9h11-9----9--------------------------|
A|-----------------------7------------------------12---12-9h11-7h9-7-----7------|
E|-5/6---------0------/9---0----9-12-9-7-5---------------------------7h9---0----|

e|-------12--------------------------------------12---12------12-12-12----------|
B|-12-14----15-12---------------------------------------------------------------|
G|---------------14/16-14-12----12-14h15p14------12---14------14-14-14-12h13----|
D|---------------------------14---------------14-----------14-------------------|
A|------------------------------------------0-----------------------------------|
E|--------------------------------------------------12---0-------------0--------|

e|------------------------------------------------------------------------------|
B|-------------------------------------------------------------------17-15------|
G|----------------------12----12-14/16-16-14-14-12----12-14/16-16-16-------16---|
D|-14-------------11-14----14----------------------14---------------------------|
A|----14-12-11-14---------------------------------------------------------------|
E|------------------------------------------------------------------------------|

{This part is super fast. Not 100% sure.)

e|-14\12-------15-12h14-12----15--/17-15----17-17-15-------------19-19----15h17-|
B|-------15-12-------------12------------17----------17-------17----------------|
G|------------------------------------------------------16/18-------------------|
D|---------------------------------------------------------------------0--------|
A|---------------------------------------------------------------------0--------|
E|------------------------------------------------------------------------------|

e|-17-15-17-15------------------------------------------------------------------|
B|-------------17-------------15---------------------------------------12h14-14-|
G|----------------15\14-12-------15\14-12---------------------------------------|
D|-------------------------14-------------14-12---------------------------------|
A|----------------------------------------------/12-10h12-10--------------------|
E|-----------------------------------------------------------12-10-7-0----------|

e|------------------------------------------------------------------------------|
B|-12-------14-----------------12-------------------------9----9--9-------------|
G|----11-13----9h11-9----11/13----11-9----9-11-9h11v-9----9----9--9----9----9---|
D|--------------------11---------------11--------------11-9h11-11-9----9----9---|
A|------------------------------------------------------------------11-9h11-11--|
E|------------------------------------------------------------------------------|

e|-----------------------12-----------------------------------------10----------|
B|-----------------12-14----15-14-12h14-----------------------------------------|
G|--------------------------------------14-12-12----------12-----------12-------|
D|-----------------------------------------------14----14----14--------------0--|
A|-9h11--------7------------------------------------14----------0-0--------0----|
E|------12-7h9---0--------------------------------------------------------------|

e|-7----------------------------------------------------------------------------|
B|-7----15----------------------------------------------------------------------|
G|-7-16----14-12----------------------------------------------------------------|
D|-9-------------14-12----------------------------------------------------------|
A|---------------------14-10h11-10h11-10h11-12-10h11-7-------------7-7----------|
E|------------------------0-----0-----0----------------7-5-0-3-4-7-----5-0------|

e|-------------------------------------9----------------------------------------|
B|-------------------------------------9------------------------8b--------------|
G|-------------------------------------9---------------------------9------------|
D|-----------------------------------------------------------11------5h7p5------|
A|-------------------------5/7-----7---------5-7-5-----------0-------------7----|
E|-3h5-5-3h5-5-3h5-5-3h5-5-----7h5---0---5/7-------7\5-3-0-0--------------------|

e|-----------------------9-12---------------------------------------------------|
B|-----------------------9----12--------------------------6-------6-------6-----|
G|----------------------------11h13p11----11----11-------5--5-------5-------7---|
D|-5h7-5h7-----------------------------14-11h13-11------4-------4-------5-------|
A|-------------5-7-7-5-----------------------------14---------------------------|
E|---------5h7---------0------------------------------5-------5-------6---------|

e|------------------------------------------10-----------------------0----------|
B|-----6-7-----7-7-7-7----------------------10h12-----------------10---10-------|
G|---8---6h8---6-8-9-8----------------------------11-9---------12---------12----|
D|-----------9---------11-9----------------------------12----0---------------0--|
A|--------------------------11-9------------------------------------------------|
E|-7-----------------------------12-8-10-10---------------10--------------------|

e|-------0--------------7---5---3----------------------------------12----12/14--|
B|----10---10---------------------3-3-3-----6-6-------5------------12h14-12/14--|
G|-12---------11-----/7---5---4---4-4-4-----5-5-------4h6-----------------------|
D|--------------------------------5-5-5---------8-7---7-------------------------|
A|-------------------------------------------------------------7----------------|
E|---------------3-3--------------------5/6---------0------7h9---0--------------|

e|-12---------------------------------------------------------------------------|
B|-12-12-------12----------12----10---10---10---10-10---10-10---8---8-8---8-8---|
G|----11h13-13-11h13-11----11----9----9h11-9----9--9----9--9----7---7-7---7-7---|
D|----------------------14----14-9h11-9----9h11-11-9h11-11-9h11-7h9-9-7h9-9-7h9-|
A|------------------------------------------------------------------------------|
E|------------------------------------------------------------------------------|


************************************

| h  Hammer-on
| \  Slide down
| /  Slide up
| p  Pull-off
| b  Bend

************************************
Suggest correction
comments
print report bad tab
guest
You may want to rate the tab now too:
select rating
Wanna post a correction for this tab? Suggest correction