Oops, an error
Loading. Please wait.

Little Red Corvette Tab

version 1
version 1

Whole song

  • Better and more specific version, transcribed with more details at 50% speed.
10,356 views 6 this week
no commentswrite comment
1 2 3 4 5
1 last vote to show rating
add to favorites
launch autoscroll
font size
0
reset
how to read this tab
guitar tuner
Autoscroll
slow
fast
+/-
esc
set tempo
stop
Help us to improve Ultimate-Guitar.com Take our survey!
×
Author
-------------------------------------------------------------------------------
                             Little Red Corvette cover - John Mayer
-------------------------------------------------------------------------------
Tabbed by: Johnmayergal
Email:johnmayerrox@hotmail.com

Tuning: EADGBe
John uses a clean delay effect for this (just make sure the delay is low)

Intro/Verse
e|---------------------------------------------------------------------------|
B|---------------------------------------------------------------------------|
G|--------------------------------11~----------------------------------------|
D|----------7~---------9~---------11~-----------9~---------------------------|
A|----------5~---------7~----------9~-----------7~---------------------------|
E|------3~~~~~-----5~~~~~------7~~~~~-------5~~~~~---------------------------|

Chorus (little Red Corvette)
e|---------------------------------------------------------------------------|
B|-------------------------11--9---------------------------------------------|
G|-------------------------------11------------------------------------------|
D|------7-----9----11-----------------11-------------------------------------|
A|------5-----7-----9--------------------------------------------------------|
E|------3--x--5--x--7--x-----------------------------------------------------|


after doing that he goes off into stop this train. you can fing this song on youtube or 
www.johnmayer.com/live

thx
Suggest correction
Give kudos to tab author, rate the tab!
1 2 3 4 5
comments
print report bad tab
guest
You may want to rate the tab now too:
select rating
Wanna post a correction for this tab? Suggest correction