Oops, an error
Loading. Please wait.

Little Red Corvette tab

version 3
version 3

Whole song

  • Better and more specific version, transcribed with more details at 50% speed.
214 views 1 this week
no commentswrite comment
1 2 3 4 5
3 more votes to show rating
add to favorites
×
Save as Personal and add changes to this tab that will be seen only by you. Learn more ›
×
You can save this tab as Personal to edit and correct it or add notes. All changes will be seen only by you. Learn more »
launch autoscroll
font size
0
reset
how to read this tab
guitar tuner
edit
Autoscroll
slow
fast
+/-
esc
set tempo
stop
Author
About this tab version
Better and more specific version, transcribed with more details at 50% speed. Was this info helpful? Yes No
John Mayer - Little Red Corvette (Prince Cover)
Live Performace „On His Own“ (6. Dec. 2008, Los Angeles)


[Intro]

 Volume                                          Slap
e|---------------------------|------------------------------|
B|---------------------------|-------------------<12>-------|
G|---------------7-----------|----------7--------<12>-------|
D|-7------9------9-------7---|---7--9---9---7---------------|
A|-5------7-------9------5---|---5--7---9---5---------------|
E|---------------------------|--3---5--7---3----------------|

e|----------------------------|------------------------------|
B|----------------------------|------------------------------|
G|----------(7)<19>----<19>---|-------------------7----------|
D|---7/-9--9---------7-<19>---|----7--------9-----9---7------|
A|---5/-7--9---------5--------|----5--------7-----9---5------|
E|-3--5--7---------3----------|-3-3-----/5-5-----7---3-------|


[Verse]
                                                          
e|-----------------------|-------------------------|
B|-----------------------|-------------------------|
G|----------------7------|--------------7----------|
D|--7------9------9----7-|-7-----9------9-------7--|
A|--5-x----7-x------x--5-|-5-----7------------5-5--|
E|-3--x-3-5--x-5-7--x-3--|-3--3/5---5-7---0-3------|

e|--------------------------|---------------------|
B|--------------------------|---------------------|
G|----------------7---------|------------7----4---|
D|----7----9------9-------7-|---7--9-----9----7---|
A|----5-x--7-x------x---5-5-|---5--7----------5---|
E|-0-3--x-5--x-5-7--x-3-----|-0-3--5---5-7--3-----|


[Chorus]

e|---------------------10--------------------------------------------|
B|--------------10-----10h12---10------------------------------------|
G|-----------------------------9h11-9h11-------------------7-7p6-7p6-|
D|--7----9------------------------------------------9------9-9-------|
A|--5----7-------------------------------------x----7-x----------x---|
E|--3----5------10-10---------------------0-3--x-0-5--x-0-7------x---|

e|---------------------10--------------------------------------------|
B|---------------------10h12---10------------------------------------|
G|-----------------------------9h11--9h11----------------------------|
D|--7----9-----------------------------------7------9----------------|
A|--5----7-----------------------------------5--x---7----------------|
E|--3----5---0-10-10--------10-----10------0-3--x-0-5----------------|


[Outro]
                                                
e|-------------------------------------------------|
B|-------------------------------------------------|
G|---------------------------7-x-7-7-x-------------|
D|---7---7-7-x---9---9-9-x---9-x-9-9-x---9---9-9-x-|
A|---5-x-5-5-x---7-x-7-7-x-----------x---7-x-7-7-x-|
E|-0-3-x-3-3-x-0-5-x-5-5-x-0-7-x-7-7-x-0-5-x-5-5-x-|

e|-----------------------------------------------------------------|
B|---------------------------------------10---10-10----------------|
G|---------------------------7-x-7-7-x---11-x-11-11-x---6-x-7-7-x--|
D|---7---7-7-x---9---9-9-x---9-x-9-9-x---12-x-12-12-x---9-x-9-9-x--|
A|---5-x-5-5-x---7-x-7-7-x-----------x-----------------------------|
E|-0-3-x-3-3-x-0-5-x-5-5-x-0-7-x-7-7-x---10-x-10-10-x---7-x-7-7-x--|

e|-----------------------------------------------------------------|
B|------------------3-x-3-3-x---3-x-3-3-x---3-x-3-3-x---3-x-3-2-x--|
G|---11-x-11-11-x---2-x-2-2-x---2-x-2-2-x---2-x-2-2-x---2-x-2-3-x--|
D|---12-x-12-12-x---0-x-0-0-x---0-x-0-0-x---0-x-0-0-x---0-x-0-0-x--|
A|-----------------------------------------------------------------|
E|---10-x-10-10-x--------------------------------------------------|


Song structure:

[Intro]
[Verse]
[Chorus]
[Verse]
[Chorus]
[Outro]



************************************

| x  Dead note
| h  Hammer-on
| p  Pull-off
| /  Slide up

************************************
Suggest correction
Creating personal tab
Creating personal tab
You can edit any tab online and save it as your Personal.

You can edit, replace or remove any tab part or add personal notes – all changes will be seen only by you.

Personal tabs can be accessed anytime from any device, even offline.
Learn more »
Give kudos to tab author, rate the tab!
1 2 3 4 5
comments
print report bad tab
guest
You may want to rate the tab now too:
select rating
Wanna post a correction for this tab? Suggest correction