Oops, an error
Loading. Please wait.

Love Is A Verb Tab

version 1
version 1

Whole song

26,489 views 66 this week
3 commentsread comments
1 2 3 4 5
x 7
add to favorites
launch autoscroll
font size
0
reset
how to read this tab
guitar tuner
Autoscroll
slow
fast
+/-
esc
set tempo
stop
Tuning: Standard

[Intro]
e|--(0)---------(9)-------------(0)-----x---------------9-----------------(0)-----|
B|---12----------12--------------12-----7/9--9------9---9---10--------10---12-----|
G|---9-----------9---------------9------7/9--12\11--9---9---9h11p9----9----9------|
D|---9-----------11------7-------9------x---------------x----------11------9------|
A|---9h11-9-11---0---7---7---7---9h11---x---------------0------------------9h11---|
E|---0-----------9---7h9-----9---0------0---------------x------------------0------|

[Verse/Chorus] 
(1st, 2nd, and 4th time)
e|--(0)-----------(9)-----(0)-----(0)----------|
B|---12------------12------7-------12----------|
G|---9-------------9-------8-------9----(2x)---|
D|---9-------------11------9-------9-----------|
A|---9h11-9-11-----0-------x-------9h11--------|
E|---0-------------9-------7-------0-----------|

[Verse/Chorus] (3rd Time)
(Substitute the last chord, the E major, with a 
C# minor the third time through the chord progression)
e|--(0)-----------(9)-----(0)-----(9)------|
B|---12------------12------7-------9-------|
G|---9-------------9-------8-------9-------|
D|---9-------------11------9-------9h11----|
A|---9h11-9-11-----0-------x-------x-------|
E|---0-------------9-------7-------9-------|


************************************

| x    Dead note
| (n)  Ghost note
| /    Slide up
| h    Hammer-on
| p    Pull-off
| \    Slide down 

************************************
Suggest correction
comments
print report bad tab
3 comments total.
0 reply
hockey2123 10 Jun 05, 2012 06:07 PM

Piano Part after 1st chorus:

e|--(0)---------(9)-------------(0)-----x---------------9-----------------(0)-----|
B|---12----------12--------------12-----7/9--9------9---9---10--------10---12-----|
G|---9-----------9---------------9------7/9--12\11--9---9---9h11p9----9----9------|
D|---9-----------11------7-------9------x---------------x----------11------9------|
A|---9h11-9-11---0---7---7---7---9h11---x---------------0------------------9h11---|
E|---0-----------9---7h9-----9---0------0---------------x------------------0------|

+2 reply
hockey2123 10 Jun 05, 2012 06:19 PM

Oops.. Tried to edit and submitted too early. Here's what I am hearing from the album version...

Piano Part after 1st chorus:
e|-------------------------------------------------------
B|-------------------------------------------------------
G|----------------6-9-6-9s13----13-11-9----------9h11-9--
D|--6-9-6-9s11--------------------------11----9----------
A|-------------------------------------------------------
E|-------------------------------------------------------

0 reply
asehauDLM 183 Sep 22, 2014 12:02 PM

Great job, well done!

guest
You may want to rate the tab now too:
select rating
Wanna post a correction for this tab? Suggest correction