Oops, an error
Loading. Please wait.

Love On The Weekend Chords

version 3
version 3

Whole song

  • Includes more accurate chords, suggested fingerings and lead parts.

Video

8,381 views 90 this week
no commentswrite comment
1 2 3 4 5
x 18
add to favorites
×
Save as Personal and add changes to this tab that will be seen only by you. Learn more ›
×
You can save this tab as Personal to edit and correct it or add notes. All changes will be seen only by you. Learn more »
save as personal
new!
launch autoscroll
font size
0
reset
transpose
0
reset
simplify chords
display chords
guitar tuner
Autoscroll
slow
fast
+/-
esc
set tempo
stop
Author
Difficulty
About this tab version
Includes more accurate chords, suggested fingerings and lead parts. Was this info helpful? Yes No
Strumming
There is no strumming pattern for this song yet. and get +5 IQ
John Mayer
"Love on the Weekend"

Suggested fingerings:
G      320033
Gadd9  3x0233       
C      x32010
Csus2  x30010
Cadd9  x32030
C6/9   x3x230 or x30230
D      xx0232             

[Intro]
      G                Gadd9            C                Csus2
e----|----------0-----|----------------|----------------|----------------|
B--3-|----3---3-------|----------0-----|----------------|-------------(3)|
G----|--------------2-|----2---2-------|----------0-----|----------------|
D----|----------------|--------------2-|----2---2---0-2-|------0---------|
A----|----------------|----------------|-3--------------|----------------|
E----|3-----3---------|-3--------------|----------------|----------------|

[Verse]
G 
It’s a Friday, we finally made it
Cadd9      C6/9          Cadd9
I can’t believe I get to see your face
G
You’ve been working and I’ve been waiting
Cadd9      C6/9         Cadd9
To peak you up and take you from this place

[Chorus]
D
Love on the weekend
D
Love on the weekend
C
Like only we can
C
Like only we can
D
Love on the weekend
D
Love on the weekend
C
I’m coming up and I’m 
C
Loving every minute of it

[Break]
      G                Gadd9            C                Csus2
e----|----------0-----|----------------|----------------|----------------|
B--3-|----3---3-------|----------0-----|----------------|-------------(3)|
G----|--------------2-|----2---2-------|----------0-----|----------------|
D----|----------------|--------------2-|----2---2---0-2-|------0---------|
A----|----------------|----------------|----------------|----------------|
E----|3-----3---------|-3--------------|----------------|----------------|

[Verse]
G
You be the DJ, I’ll be the driver
Cadd9         C6/9          Cadd9
You put your feet up in the getaway car
G                      G
I’m flying fast like a, a wanted man
Cadd9        C6/9          Cadd9
I want you, baby, like you can’t understand

[Chorus]
D
Love on the weekend
D
Love on the weekend
C 
We found a message in a 
C
Bottle we were drinking
D
Love on the weekend
D
Love on the weekend
C
I hate your guts ’cause I’m 
C
Loving every minute of it
                                                     C
e|----------------|----------------|----------------|----------8-8-7-|
B|----------------|----------------|----------------|----------8-8-8-|
G|----------------|----------------|----------------|----------------|
D|----------------|----------------|----------------|----------------|
A|----------------|----------------|----------------|----------------|
E|----------------|----------------|----------------|----------------|

[Bridge]
  G                Gadd9            Cadd9  C6/9      Cadd9
e|----------------|----------8-8-7-|------10--------|----------8-8-7-|
B|8---------------|----------8-8-8-|8---------------|----------8-8-8-|
G|7---------------|----------------|9---------------|----------------|
D|----------------|----------------|----------------|----------------| X4
A|----------------|----------------|----------------|----------------|
E|----------------|----------------|----------------|----------------|

[Verse]
G 
I gotta leave ya, it’s gonna hurt me
Cadd9          C6/9         Cadd9
My clothes are dirty and my friends are getting worried
G
Down there below us, under the clouds
Cadd9         C6/9             Cadd9
Baby, take my hand and pull me down, down, down
D
And I’ll be dreamin’ of the next time we can go
C
Into another serotonin overflow
D
Love on the weekend
D
Love on the weekend
C   
I’m busted up but I’m loving every minute of it

[Outro]
G    Gadd9

C
Love on the weekend, love on the weekend
G                              
I’m looking for a little love 
Gadd9
I’m looking for a little love, oh yeah
C
Love on the weekend, love on the weekend
G                              
I’m looking for a little love 
Gadd9
I’m looking for a little love, oh yeah
C
Love on the weekend, love on the weekend
Suggest correction
comments
print report bad tab
guest
You may want to rate the tab now too:
select rating
Wanna post a correction for this tab? Suggest correction