Oops, an error
Loading. Please wait.

Love Song For No One Tab

version 1
version 1

Whole song

Interactive

127,280 views 63 this week
8 commentsread comments
1 2 3 4 5
x 31
add to favorites
launch autoscroll
font size
0
reset
how to read this tab
guitar tuner
Autoscroll
slow
fast
+/-
esc
set tempo
stop
Help us to improve Ultimate-Guitar.com Take our survey!
×
Author
Capo
2nd fret
Capo 2nd fret

[Intro] 
e|---3---0--3---0---0------2---0--3---0---0---| 
B|---3---0--1---3---3------3---0--1---3---3---| 
G|---0---0--0---0---0------0---0--0---0---0---| 
D|---0---2--2---x---x------0---2--2---x---x---| 
A|---x---0--0---2---3------x---0--0---2---3---| 
E|---3---------------------3------------------| 

[Part 1] 
(Verse)
e|---3------------------3---8--8---| 
B|---3------------------1---6--5---| 
G|---0--(4)-(4)---------0---x--x---| 
D|---0---2---4---(x2)---3---7--7---| 
A|---x---x---x----------x---x--x---| 
E|---3---3---3----------1---8--8---| 

((3x24xx) and (3x44xx) are sometimes played this way (3x2xxx)/(3x4xxx). 
John uses his thumb on the e string.)

[Part 2] 
[Chorus]
e|---3--2---7---0---0------2---7---0---0---| 
B|---3--3---8---8---3------3---8---8---3---| 
G|---0--0---7---0---0------0---7---0---0---| 
D|---0--0---7---5---x------0---7---5---x---| 
A|---x--x---9---7---3------x---9---7---3---| 
E|---3--3---7---0---x------3---7---0---x---| 

(I really hear (075080), but on the video, he seems to be playing (07x980))

[Part 3] 
e|--------------------------------------------------------3---| 
B|---1---1---1------1---1---3------1---1---1------1---1---1---| 
G|---0---0---0------0---0---0------0---0---0------0---0---0---| 
D|---2---0---2------2---0---2------2---0---2------2---0---3---| 
A|---0---2---3------0---2---2------0---2---3------3---2---x---| 
E|--------------------------0-----------------------------1---| 

[Part 4] 
 " You'll be so good for me.." 
e|---2---7---0---0-0---| 
B|---3---8---8---3-3---| 
G|---0---7---0---0-0---| 
D|---0---7---5---2-0---| 
A|---x---9---7---3-3---| 
E|---3---7---0---x-x---| 

(Instead of (x30030), he sometimes plays (x3x032)) 

[Part 5] 
e|---3--2-3---2-3---2-3---2---3----------2-3---3--2--3---|  
B|---3------3-----3-----3-----3--------3-------3-----3---|  
G|---0------------------------0----------------0-----0---|  
D|---0------------------------0---(x3)---------0-----0---|  
A|---x------------------------x----------------x-----x---|  
E|---3------------------------3----------------3-----3---|


************************************

| x    Dead note
| (n)  Ghost note  

************************************
Suggest correction
comments
print report bad tab
8 comments total. Showing first comments.
0 reply
acoustic_1212 20 May 08, 2009 02:13 AM

biggg tks and shout out to Catherine Gagné,great tabbing,she rocks,keep up the good work,tks2 u i learned some good songs"tips hat off"``````billy```````

0 reply
guitty 42 Jun 15, 2009 12:10 PM

whenever i look for john mayer tabs and see ur name, i'm sure that the tab is right! good job girl!

0 reply
Casts 31 Jul 28, 2009 04:12 PM

Hahaha I guess I'll take their words for it It does sound pretty right on. It's great.

guest
You may want to rate the tab now too:
select rating
Wanna post a correction for this tab? Suggest correction